Search tabs:
Browse artists: 0-9 | A | B | C | D | E | F | G | H | I | J | K | L | M | N | O | P | Q | R | S | T | U | V | W | X | Y | Z
/ NOFX / White Trash, Two Heebs & A Bean (1993) / Please Play This Song On The Radio guitar tab


Date: Mon, October 13 1997
From: Peter Ferragine (iginition@yesic.com)
Group: NOFX
Album: White Trash, Two Heebs and a Bean
Released: 1992 epitaph records
Track: 8
Title: please play this song on the radio

pm - palm mute (play with pm until the line above stops, then release pm)


intro - guitar 2

|-------------------------------|
|-------------------------------|
|----7-----5-----7-----5--4-----|
|-5--7--2--5--5--7--2--5--4-7-5-|  
|-5--5--2--3--5--5--2--3--2-7-5-|
|-3-----0-----3-----0-------5-3-|

verse

pm_______________________________________________________________|
|-----------------------------------------------------------------------
|-----------------------------------------------------------------------
|---------7-7-7-7---------5-5-5-5---------7-7-7-7---------5-5-5-5--5--5-
|-5-5-5-5-7-7-7-7-2-2-2-2-5-5-5-5-5-5-5-5-7-7-7-7-2-2-2-2-5-5-5-5--5--5-
|-5-5-5-5-5-5-5-5-2-2-2-2-3-3-3-3-5-5-5-5-5-5-5-5-2-2-2-2-3-3-3-3--3--3-
|-3-3-3-3---------0-0-0-0---------3-3-3-3---------0-0-0-0---------------

 |_______________________________________________|
 ---------------------------------------------------------------|
 ---------------------------------------------------------------|
 ---------7-7-7-7---------5-5-5-5---------7-7-7-7--2--2--2-4-5--|
 -5-5-5-5-7-7-7-7-2-2-2-2-5-5-5-5-5-5-5-5-7-7-7-7--2--2--2-4-5--|
 -5-5-5-5-5-5-5-5-2-2-2-2-3-3-3-3-5-5-5-5-5-5-5-5--0--0--0-2-3--|
 -3-3-3-3---------0-0-0-0---------3-3-3-3-----------------------|

chorus

|----------------------------------------|
|----------------------------------------|
|---------7-7-7-7-4-4-4-4-5-5-5-5--5-4---|
|-5-5-5-5-7-7-7-7-4-4-4-4-5-5-5-5--5-4-5-|
|-5-5-5-5-5-5-5-5-2-2-2-2-3-3-3-3--3-2-5-|
|-3-3-3-3------------------------------3-|

lyrics

we wrote this song, it's not too short, not too long
it's got back-up vocals in just the right places
it's got a few ooh's and ahh's, it takes a little pause
just before the second chorus
please play this song on the radio, almost every line is sung in time
almost every verse ends in a rhyme, the only problem we had was writing
enough words, but that's okay, because the chorus is coming up again now
please play this song on the radio, please play this song on the radio
right about this time, some shithead will be drawin a fat fucking line
over the title on the back sleeve, what an asshole
so mr.dj, i hope you already made your segway
or the fcc is gonna take a shit right on your head
can't play this song on the radio, can't play this song on the radio



NOFX albums
2003 War on Errorism
2000 Pump Up the Valuum
1997 So Long And Thanks For All The Shoes
1996 Heavy Petting Zoo
1995 I Heard They Suck Live!!
1994 Punk in Drublic
1993 The Longest Line
1993 White Trash, Two Heebs & A Bean
1991 Ribbed
1989 S & M Airlines
White Trash, Two Heebs & A Bean tabs
01Soul Doubt tabbass tab
02Stickin In My Eye tabbass tab
03Bob tabbass tab
04You're Bleeding tabbass tab
05Straight Edge tabbass tab
06Liza & Louise tabbass tab
07The Bag tabbass tab
08Please Play This Song On The Radio tabbass tab
09Warm tabbass tab
10I Wanna Be Your Baby tabbass tab
11Johnny Appleseed tabbass tab
12She's Gone tabbass tab
13Buggley Eyes tabbass tab

 

1