Search tabs:
Browse artists: 0-9 | A | B | C | D | E | F | G | H | I | J | K | L | M | N | O | P | Q | R | S | T | U | V | W | X | Y | Z
/ NOFX / White Trash, Two Heebs & A Bean (1993) / She's Gone guitar tab


Date: Thurs, October 16 1997
From: Peter Ferragine (iginition@yesic.com)
Group: NOFX
Album: White Trash, Two Heebs and a Bean
Released: 1992 epitaph records
Track: 12
Title: she's gone


verse

|-----------------------------------------|
|-----------------------------------------|
|-3---5---7---7-5-3---5---7---7-5-3---5---|
|-3---5---7---7-5-3---5---7---7-5-3---5---|
|-1---3---5---5-3-1---3---5---5-3-1---3---|
|-----------------------------------------|

distortion kicks in and...

|-----------------------------------------------------------------------
|-----------------------------------------------------------------------
|------10-9-7----5----3--5--7---7-7-7-7-7-5-5-5-5-5-----------3-3-3-3-3-
|-3----10-9-7----5----3--5--7---7-7-7-7-7-5-5-5-5-5-7-7-7-7-7-3-3-3-3-3-
|-3-----8-7-5----3----1--3--5---5-5-5-5-5-3-3-3-3-3-7-7-7-7-7-1-1-1-1-1-
|-1-------------------------------------------------5-5-5-5-5-----------

 ---------------------------------------------------------------------------
 ---------------------------------------------------------------------------
 -----------------------------------7-7-7-7-7-5-5-5-5-5-----------3-3-3-3-3-
 -5-5-5-5-5-7-7-7-7-7-7-7--10-9-7---7-7-7-7-7-5-5-5-5-5-7-7-7-7-7-3-3-3-3-3-
 -5-5-5-5-5-7-7-7-7-7-7-7--10-9-7---5-5-5-5-5-3-3-3-3-3-7-7-7-7-7-1-1-1-1-1-
 -3-3-3-3-3-5-5-5-7-7-7-7---8-7-5-----------------------5-5-5-5-5-----------

 --------------------------------|
 --------------------------------|
 --------------------------------|
 -5-5-5-5-5-7-7-7-7-7-7-7--10-9--|
 -5-5-5-5-5-7-7-7-7-7-7-7--10-9--|
 -3-3-3-3-3-5-5-5-5-5-5-5---8-8--|

chorus

|-------------------------------|
|-------------------------------|
|-7-----------------3--5--7-----|   play twice
|-7-----3-----5-----3--5--7-----|
|-5-----3-----5-----1--3--5-----|
|-------1-----3-----------------|

lyrics

a blackened wick is what remains, the flame was blown out just recently
although the candle hadn't burned down to the stick,
it won't be lit again the day won't be quite as bright
we don't know what she may have been, all we know is what she left behind
an apartment cluttered with children's toys, photos of good times
in the bedroom there's sheets on the windows, 
there's a four poster bed for a reason
on the floor there's a box full of secrets it won't be opened
here older boys and girls would play, all inhibitions were left behind
and as the door would close her face began to shine,
this was her finest hour this was her finest time
she's gone and it's not gonna be alright not for me 
she's gone and it's not gonna be alright not for me she's
gone but not forgotten she's still here
in all those years she touched so many lives
who's gonna watch that little girl she left behind?
carol anne stands alone in the schoolyard
all the other children have gone
after waiting for hours she can't understand
why her mother left herself
in the darkness she sees definition
in the silence she hears someone calling
after nightmares she lies in bed screaming but there's no reaction
there's no one listening there's no one there
she's gone and it's not gonna be alright, not for me she's gone



NOFX albums
2003 War on Errorism
2000 Pump Up the Valuum
1997 So Long And Thanks For All The Shoes
1996 Heavy Petting Zoo
1995 I Heard They Suck Live!!
1994 Punk in Drublic
1993 The Longest Line
1993 White Trash, Two Heebs & A Bean
1991 Ribbed
1989 S & M Airlines
White Trash, Two Heebs & A Bean tabs
01Soul Doubt tabbass tab
02Stickin In My Eye tabbass tab
03Bob tabbass tab
04You're Bleeding tabbass tab
05Straight Edge tabbass tab
06Liza & Louise tabbass tab
07The Bag tabbass tab
08Please Play This Song On The Radio tabbass tab
09Warm tabbass tab
10I Wanna Be Your Baby tabbass tab
11Johnny Appleseed tabbass tab
12She's Gone tabbass tab
13Buggley Eyes tabbass tab

 

1