Search tabs:
Browse artists: 0-9 | A | B | C | D | E | F | G | H | I | J | K | L | M | N | O | P | Q | R | S | T | U | V | W | X | Y | Z
/ NOFX / White Trash, Two Heebs & A Bean (1993) / Soul Doubt guitar tab


Date: Sun, October 12 1997
From: Peter Ferragine (iginition@yesic.com)
Group: NOFX
Album: White Trash, Two Heebs and a Bean
Released: 1992 epitaph records
Track: 1
Title: soul doubt

h - hammer on
x - scratch


intro

|-------------------------------------------------------------------
|-------------------------------------------------------------------
|-------------------------------------------------------------------
|-------------------------------------------------------------------
|-7-7-----5-5-7---4-5-4-7-7-----5-5-7---4-5-4-7-7-----5-5-7---4-5-4-
|-----5h7-------5-----------5h7-------5-----------5h7-------5-------

 ---------------------------------------------------------------------
 ---------------------------------------------------------------------
 ---------------------------------------------------------------------
 ---------------------------------------------------------------------
 -7-7-----5-5-5-4-5-4-2-7-7-----7---4-5-4-7-7-----5-5-5-4-5-5-5-5-5-5-
 -----5h7-------------------5h7---5-----------5h7---------------------

 ---------------|
 ---------------|
 ---------------|
 ---------------|
 -4-4-4-4-4-4-4-|
 ---------------|

verse

|-------------------------------------------
|-------------------------------------------
|-9-x-x-9-9--9-x-x-9-9--9-x-x-9-9--7-6-7-6-7-
|-9-x-x-9-9--9-x-x-9-9--9-x-x-9-9--7-6-7-6-7-
|-7-x-x-7-7--7-x-x-7-7--7-x-x-7-7--5-4-5-4-5-
|--------------------------------------------

 ----------------------------------------|--------------------|
 ----------------------------------------|--------------------|
 -9-x-x-9-9--9-x-x-9-9--9-x-x-9-9--7-6-7-|-9:--11:--11-14-9:--|
 -9-x-x-9-9--9-x-x-9-9--9-x-x-9-9--7-6-7-|-9:--11:--11-14-9:--|
 -7-x-x-7-7--7-x-x-7-7--7-x-x-7-7--5-4-5-|-7:---9:---9-12-7:--|
 ----------------------------------------|--------------------|

verse 2

|-------------------------------------------------|
|-------------------------------------------------|
|-------------------------------------------------|
|-------------------------------------------------|
|-7-7-6-7-7-7-6-7-5-5-4-5-5-5-4-5-5-5-4-5-5-5-4-5-|
|-------------------------------------------------|

 -----------------------------------------------------------------
 -----------------------------------------------------------------
 -----------------------------------------------------------------
 -----------------------------------------------------------------
 -7-7-6-7-7-7-6-7-7-7-6-7-7-7-6-7-5-5-4-5-5-5-4-5-5-5-4-5-5-5-4-5-
 -----------------------------------------------------------------

 -----------------|
 -----------------|
 -----------------|
 -----------------|
 -7-7-6-7-7-7-6-7-|
 -----------------|

chorus

|---------------------------|
|---------------------------|
|-------9-x-x-9-9-----------|
|-5--7--9-x-x-9-9--5--7--9--|
|-5--7--7-x-x-7-7--5--7--9--|
|-3--5-------------3--5--7--|

riff

|----------------------------------------------------------------------|
|----------------------------------------------------------------------|
|-9-9-----7------------------------9-9-----7-9-9-----7-----------------|
|-9-9-7h9---7-7-----5-10-10------8-9-9-7h9---9-9-7h9---7-7-----7-10-10-|
|-7-7-------7-7-5h7---10-10-8h10---7-7-------7-7-------7-7-5h7---10-10-|
|-----------5-5--------8--8----------------------------5-5--------8--8-|

|----------------------------------------------------------------------|
|----------------------------------------------------------------------|
|--------9-9-9-8-7-----9-9-----7-----------------12-12-11-11-9-9-------|
|------8-9-9-------9-7-9-9-7h9---7-7-----5-10-10-12-12-11-11-9-9-10-10-|
|-8h10---7-7-----------7-7-------7-7-5h7---10-10-10-10--9--9-7-7-10-10-|
|--------------------------------5-5--------8--8------------------8--8-|

bridge

pm_____________________|
|----------------------|
|----------------------|
|--------------7-5-7-8-|
|-2-2-5-5-2-2--7-5-7-8-|
|-2-2-5-5-2-2--5-3-5-6-|
|-0-0-3-3-0-0----------|

post bridge

|-------------------------------------------------------------------------|
|-------------------------------------------------------------------------|
|-9-9-9-9---------------------7-7-7-7-9-9-9-9---------------------7-7-7-7-|
|-9-9-9-9-10-10-10-10-5-5-5-5-7-7-7-7-9-9-9-9-10-10-10-10-5-5-5-5-7-7-7-7-|
|-7-7-7-7-10-10-10-10-5-5-5-5-5-5-5-5-7-7-7-7-10-10-10-10-5-5-5-5-5-5-5-5-|
|----------8--8--8--8-3-3-3-3------------------8--8--8--8-3-3-3-3---------|

lyrics

sometimes i feel my life is going 'round in circles
beneath my eyes are bluish black
there's nothing new, no one i wanna talk to
nothing i wanna think about, i got soul doubt
i stick my head out of the window, it's closed
instead of air i get glass stuck into my head
the city's sounding, and i can't seem to stop the pounding
can't keep my thoughts from flying 'round
can't keep my thoughts from flying 'round
not sure what i'm thinking about, i got soul doubt
a shameless display, wearing a smile full of pain
a frameless erte, a painting without a signature
she's waiting for someone to save her
as i pass her by i see cinderella
she doesn't fit into the slipper
like she fits in a bottle of liqour
there's no one to take her away
her eyes meet mine, she see's right through me
the question is asked, whatcha' gonna do for me?
i don't want nothin' just a connection
i gotta know what she's all about
cause i know she's been there, soul doubt



NOFX albums
2003 War on Errorism
2000 Pump Up the Valuum
1997 So Long And Thanks For All The Shoes
1996 Heavy Petting Zoo
1995 I Heard They Suck Live!!
1994 Punk in Drublic
1993 The Longest Line
1993 White Trash, Two Heebs & A Bean
1991 Ribbed
1989 S & M Airlines
White Trash, Two Heebs & A Bean tabs
01Soul Doubt tabbass tab
02Stickin In My Eye tabbass tab
03Bob tabbass tab
04You're Bleeding tabbass tab
05Straight Edge tabbass tab
06Liza & Louise tabbass tab
07The Bag tabbass tab
08Please Play This Song On The Radio tabbass tab
09Warm tabbass tab
10I Wanna Be Your Baby tabbass tab
11Johnny Appleseed tabbass tab
12She's Gone tabbass tab
13Buggley Eyes tabbass tab

 

1