Search tabs:
Browse artists: 0-9 | A | B | C | D | E | F | G | H | I | J | K | L | M | N | O | P | Q | R | S | T | U | V | W | X | Y | Z
/ NOFX / White Trash, Two Heebs & A Bean (1993) / Stickin In My Eye guitar tab


Date: Fri, October 3 1997
From: Peter Ferragine (iginition@yesic.com)
Group: NOFX
Album: white trash, two heebs and a bean
Released: 1992 epitaph records
Track: 2
Title: stickin in my eye

x - scratch
pm - palm mute (play with pm until the line above stops, then release pm)
/ \ - slide
h - hammer on


intro

|-------------------------------------|
|-------------------------------------|
|-------------------------------------|
|-5-5-5-5-5-4-4-4-5-5-5-5-5-2-2-2-1-1-|
|-7-7-7-7-7-5-5-5-7-7-7-7-7-3-3-3-2-2-|
|-------------------------------------|

post verse - two guitars

guitar 1 
|-----------------------------------------------------------------|
|-----------------------------------------------------------------|
|-9-9-9-9-9-9-9-9-7-7-7-7-7-7-7-7-5-5-5-5-5-5-5-5-4-4-4-4-4-4-4-4-|
|-9-9-9-9-9-9-9-9-7-7-7-7-7-7-7-7-5-5-5-5-5-5-5-5-4-4-4-4-4-4-4-4-|
|-7-7-7-7-7-7-7-7-5-5-5-5-5-5-5-5-3-3-3-3-3-3-3-3-2-2-2-2-2-2-2-2-|
|-----------------------------------------------------------------|

guitar 2
|-------------------------------------------|
|-5-5-7-8-7--5-5-7-8-7--5-5-7-8-7--4-4-5-7--|
|-------------------------------------------|
|-------------------------------------------|
|-------------------------------------------|
|-------------------------------------------|

verse - two guitars

guitar 1           pm_____|        guitar 2
|-------------------------|        |---------------------------------|
|-------------------------|        |---------------------------------|
|-9-9-9-7-7-7-5-5-5-4-4-4-|        |---------------------------------|
|-9-9-9-7-7-7-5-5-5-4-4-4-|        |-5-5-5-5-5-4-4-4-2-2-2-2-2-1-1-1-|
|-7-7-7-5-5-5-3-3-3-2-2-2-|        |-7-7-7-7-7-5-5-5-3-3-3-3-3-2-2-2-|
|-------------------------|        |---------------------------------|

chorus

|-----------------------------------------------------------------|
|-----------------------------------------------------------------|
|-----------------------------------------------------------------|
|-2-2-2-2-2-2-2-2-5-5-5-5-5-5-5-5-7-7-7-7-7-7-7-7-9-9-9-9-9-9-9-9-|
|-2-2-2-2-2-2-2-2-5-5-5-5-5-5-5-5-7-7-7-7-7-7-7-7-9-9-9-9-9-9-9-9-|
|-0-0-0-0-0-0-0-0-3-3-3-3-3-3-3-3-5-5-5-5-5-5-5-5-7-7-7-7-7-7-7-7-|

riff

|------------------------------|
|------------------------------|
|-9-x-12-12-12-x-x-x-14\5-5-7--|
|-9-x-12-12-12-x-x-x-14\5-5-7--|
|-7-x-10-10-10-x-x-x-12\3-3-5--|
|------------------------------|

riff 2

|-----------------|
|---------8-------|
|-----7h9---9-7-9-|
|-7h9-------------|
|-----------------|
|-----------------|

riff 3
   pm______| |_______| |________|
|--------------------------------|
|--------------------------------|
|-9---------9---------9----------|
|-9---------9---------9----------|
|-7---------7---------7----------|
|---0-0-0-0---0-0-0-0---0-0-0-0--|

lyrics

when i look 'round, i only see outta one eye
as the smoke surrounds my head, the sauna
i hear the voices but i can't make out their words
saying things, saying things that 
i got something stickin in my eye
got something stickin in my eye
got something stickin in my eye
i feel unusual from thinking
about the underground decay, god help me 
kill beneath the camera, watch the world begin to cry
it's not from pity, it comes from
what's been stickin in my eye
got something stickin in my eye


NOFX albums
2003 War on Errorism
2000 Pump Up the Valuum
1997 So Long And Thanks For All The Shoes
1996 Heavy Petting Zoo
1995 I Heard They Suck Live!!
1994 Punk in Drublic
1993 The Longest Line
1993 White Trash, Two Heebs & A Bean
1991 Ribbed
1989 S & M Airlines
White Trash, Two Heebs & A Bean tabs
01Soul Doubt tabbass tab
02Stickin In My Eye tabbass tab
03Bob tabbass tab
04You're Bleeding tabbass tab
05Straight Edge tabbass tab
06Liza & Louise tabbass tab
07The Bag tabbass tab
08Please Play This Song On The Radio tabbass tab
09Warm tabbass tab
10I Wanna Be Your Baby tabbass tab
11Johnny Appleseed tabbass tab
12She's Gone tabbass tab
13Buggley Eyes tabbass tab

 

1