Search tabs:
Browse artists: 0-9 | A | B | C | D | E | F | G | H | I | J | K | L | M | N | O | P | Q | R | S | T | U | V | W | X | Y | Z
/ NOFX / White Trash, Two Heebs & A Bean (1993) / The Bag guitar tab


Date: Mon, October 13 1997
From: Peter Ferragine (iginition@yesic.com)
Group: NOFX
Album: White Trash, Two Heebs and a Bean
Released: 1992 epitaph records
Track: 7
Title: the bag

^ - bend
/ \ - slide
: - let ring


intro

|--------------------------|
|--------------------------|
|-7--4--5--5---7--4--5--5--|
|-7--4--5--5---7--4--5--5--|
|-5--2--3--3---5--2--3--3--|
|--------------------------|

verse

|----------------------------------------------------------------------------
|----------------------------------------------------------------------------
|-7-7-7-7-7-4-4-4-4-4-5-5-5-5-5------------7-7-7-7-7-4-4-4-4-4-5-5-5-5-5-5-5-
|-7-7-7-7-7-4-4-4-4-4-5-5-5-5-5-7-7-7-7-7--7-7-7-7-7-4-4-4-4-4-5-5-5-5-5-5-5-
|-5-5-5-5-5-2-2-2-2-2-3-3-3-3-3-7-7-7-7-7--5-5-5-5-5-2-2-2-2-2-3-3-3-3-3-3-3-
|-------------------------------5-5-5-5-5------------------------------------

 --------------------------------------------------------------------
 --------------------------------------------------------------------
 --5--4----------------------10-10-10-10-10-10-10-10-5-5-5-5-5-5-5-5-
 --5--4--7-7-7-7-7-5-5-5-5-5-10-10-10-10-10-10-10-10-5-5-5-5-5-5-5-5-
 --3--2--7-7-7-7-7-5-5-5-5-5--8--8--8--8--8--8--8--8-3-3-3-3-3-3-3-3-
 --------5-5-5-5-5-3-3-3-3-3-----------------------------------------

 -----------------|
 -----------------|
 -4-4-4-4-4-4-4-4-|
 -4-4-4-4-4-4-4-4-|
 -2-2-2-2-2-2-2-2-|
 -----------------|

chorus

|-------------------------------------|
|-------------------------------------|
|---------------------5-5-5-5-5-5-5-5-|
|-3-3-3-3-3-5-5-5-5-5-5-5-5-5-5-5-5-5-|
|-3-3-3-3-3-5-5-5-5-5-3-3-3-3-3-3-3-3-|
|-1-1-1-1-1-3-3-3-3-3-----------------|

riff 1                      riff 2

|----------------|          |----------------|
|--------7-------|          |-7-7-7-9^--7/10-|
|--7^------7^--5-|          |----------------|
|----------------|          |----------------|
|----------------|          |----------------|
|----------------|          |----------------|

bridge

|------------------------------------------------------------------
|------------------------------------------------------------------
|---------------------5-5-5-5-5------------------------------------
|-3-3-3-3-3-5-5-5-5-5-5-5-5-5-5--3-3-3-3-3-3-3-3-3-3-3-3-5-5-5-5-5-
|-3-3-3-3-3-5-5-5-5-5-3-3-3-3-3--3-3-3-3-3-3-3-3-3-3-3-3-5-5-5-5-5-
|-1-1-1-1-1-3-3-3-3-3------------1-1-1-1-1-1-1-1-1-1-1-1-3-3-3-3-3-

 -------------------------------------------------------------------------
 -------------------------------------------------------------------------
 -5-5-5-5---5-5-5-5---5-5-5-5--5-7-5-4-5-4--------------------------------
 -5-5-5-5---5-5-5-5---5-5-5-5--5-7-5-4-5-4---7-7-7-7---5-5-5-5---3-3-3-3--
 -3-3-3-3---3-3-3-3---3-3-3-3--3-5-3-2-3-2---7-7-7-7---5-5-5-5---3-3-3-3--
 --------------------------------------------5-5-5-5---3-3-3-3---1-1-1-1--
 
 -----------------------------------------------------------------------
 -----------------------------------------------------------------------
 -5-7-5-4-5-4-----------------------------------------------------------
 -5-7-5-4-5-4---7-7-7-7-5-5-5-5-3-3-3-3-5-5-5-5-7-7-7-7-5-5-5-5-3-3-3-3-
 -3-5-3-2-3-2---7-7-7-7-5-5-5-5-3-3-3-3-5-5-5-5-7-7-7-7-5-5-5-5-3-3-3-3-
 ---------------5-5-5-5-3-3-3-3-1-1-1-1-3-3-3-3-5-5-5-5-3-3-3-3-1-1-1-1-

 -----------------------------------------|
 -----------------------------------------|
 -----------------------------------------|
 -5-5-5-5-7-7-7-7-5-5-5-5-3-3-3-3-5-5-5-5-|
 -5-5-5-5-7-7-7-7-5-5-5-5-3-3-3-3-5-5-5-5-|
 -3-3-3-3-5-5-5-5-3-3-3-3-1-1-1-1-3-3-3-3-|

outro

|--------------------------------------|
|--------------------------------------|
|---------------------------------5:---|
|-3-3-3-3-3-3-3-3-5-5-5-5-5-5-5-5-5:---|
|-3-3-3-3-3-3-3-3-5-5-5-5-5-5-5-5-3:---|
|-1-1-1-1-1-1-1-1-3-3-3-3-3-3-3-3------|

lyrics

endless evenings of non-exist, are getting shorter, monotonous
like an intruder i belong outside, although i find myself right back
the same place i was before, saying things i'd say once more
there's no reason for me to be here, no
i feel so lonesome, surrounded by friends
who are talking about me, saying things i could care less about
this dialogue is without, worth, content, significance
conversational ambivalence, hear the same things every night
it just ain't right, i'm not the one to hold the bag
give me something i can sink my teeth into
show me a time, tell me a story
that i haven't heard a million times before
i pass out from boredom
as i watch the people pass, i see moments in their lives, nothing fascinating
are we all living for the past, never realizing
we're clinging to an empty bag, lacking content, significance
canversational ambivalence, say the same thing every night 
it just ain't right, we'll see who's left holding the bag



NOFX albums
2003 War on Errorism
2000 Pump Up the Valuum
1997 So Long And Thanks For All The Shoes
1996 Heavy Petting Zoo
1995 I Heard They Suck Live!!
1994 Punk in Drublic
1993 The Longest Line
1993 White Trash, Two Heebs & A Bean
1991 Ribbed
1989 S & M Airlines
White Trash, Two Heebs & A Bean tabs
01Soul Doubt tabbass tab
02Stickin In My Eye tabbass tab
03Bob tabbass tab
04You're Bleeding tabbass tab
05Straight Edge tabbass tab
06Liza & Louise tabbass tab
07The Bag tabbass tab
08Please Play This Song On The Radio tabbass tab
09Warm tabbass tab
10I Wanna Be Your Baby tabbass tab
11Johnny Appleseed tabbass tab
12She's Gone tabbass tab
13Buggley Eyes tabbass tab

 

1