Search tabs:
Browse artists: 0-9 | A | B | C | D | E | F | G | H | I | J | K | L | M | N | O | P | Q | R | S | T | U | V | W | X | Y | Z
/ NOFX / White Trash, Two Heebs & A Bean (1993) / Warm guitar tab


Date: Tues, October 14 1997
From: Peter Ferragine (iginition@yesic.com)
Group: NOFX 
Album: White Trash, Two Heebs and a Bean
Released: 1992 epitaph records
Track: 9
Title: warm


intro - guitar 1 

|----------------------|
|----------------------|
|----------------------|
|----------------------|
|----------------------|
|--5-3--5-3--2-3-2-3-2-|

guitar - 2

|-----------------------------------------------------------------|
|-----------------------------------------------------------------|
|-14-14-x-x-x-x-x-14-14-x-x-x-x-x-14-14-x-x-x-x-x-14-14-x-x-x-x-x-|
|-14-14-x-x-x-x-x-14-14-x-x-x-x-x-14-14-x-x-x-x-x-14-14-x-x-x-x-x-|
|-12-12-x-x-x-x-x-12-12-x-x-x-x-x-12-12-x-x-x-x-x-12-12-x-x-x-x-x-|
|-----------------------------------------------------------------|

after that play...

|-----------------------------------------------------|
|-----------------------------------------------------|
|-12-12:----7-7:----2-2:----12-12:----7-7:----2-2:----|
|-12-12:----7-7:----2-2:----12-12:----7-7:----2-2:----|
|-10-10:----5-5:----0-0:----10-10:----5-5:----0-0:----|
|-----------------------------------------------------|

then...

|---------------------------------------------------------------------|
|---------------------------------------------------------------------|
|-12-12-x-x-x-12-12-x-x-x-7-7-x-x-x-7-7-x-x-x-12-12-x-x-x-12-12-x-x-x-|
|-12-12-x-x-x-12-12-x-x-x-7-7-x-x-x-7-7-x-x-x-12-12-x-x-x-12-12-x-x-x-|
|-10-10-x-x-x-10-10-x-x-x-5-5-x-x-x-5-5-x-x-x-10-10-x-x-x-10-10-x-x-x-|
|---------------------------------------------------------------------|

next...

|---------------------------------------------------------|
|---------------------------------------------------------|
|-7/9\7--7-7/9\7--5/7\5--7/9\7--14--7/9\7--7-7/9\7--5/7\5-|
|-7/9\7--7-7/9\7--5/7\5--7/9\7--14--7/9\7--7-7/9\7--5/7\5-|
|-5/7\5--5-5/7\5--3/5\3--5/7\5--12--5/7\5--5-5/7\5--3/5\3-|
|---------------------------------------------------------|

and after that...

|----------------------------------------------------------------------|
|----------------------------------------------------------------------|
|----5---------------7-7---x-x-x-x-x-------------------7-7---x-x-x-x-x-|
|-3--5--7-x-x-x-x-x--7-7---x-x-x-x-x--3-3---x-x-x-x-x--7-7---x-x-x-x-x-|
|-3--3--7-x-x-x-x-x--5-5---x-x-x-x-x--3-3---x-x-x-x-x--5-5---x-x-x-x-x-|
|-1-----5-x-x-x-x-x-------------------1-1---x-x-x-x-x------------------|

verse

|--------------------------------------------------------------------------
|--------------------------------------------------------------------------
|--------12\11/12----------------------------------------12\11/12----------
|-7-7:---12\11/12--3-3-3-3-5-5-5-5-----------------------12\11/12--3-3-3-3-
|-7-7:---10\-9/10--3-3-3-3-5-5-5-5-----------------------10\-9/10--3-3-3-3-
|-5-5:-------------1-1-1-1-3-3-3-3---5-3--5-3--2-3-2-3-2-----------1-1-1-1-

 ---------------------------------------------------------|
 ---------------------------------------------------------|
 -------------------------------12\11/12------------------|
 -5-5-5-5-----------------------12\11/12--3-3-3-3-5-5-5-5-|
 -5-5-5-5-----------------------10\-9/10--3-3-3-3-5-5-5-5-|
 -3-3-3-3---5-3--5-3--2-3-2-3-2-----------1-1-1-1-3-3-3-3-|

|-----------------------------------------------------------------|
|-----------------------------------------------------------------|
|---------------------------------7-7-7-7-7-7-7-7-----------------|
|-7-7-7-7-7-7-7-7-5-5-5-5-5-5-5-5-7-7-7-7-7-7-7-7-7-7-7-7-7-7-7-7-|
|-7-7-7-7-7-7-7-7-5-5-5-5-5-5-5-5-5-5-5-5-5-5-5-5-7-7-7-7-7-7-7-7-|
|-5-5-5-5-5-5-5-5-3-3-3-3-3-3-3-3-----------------5-5-5-5-5-5-5-5-|

next...

|-------------------------------------------------------------------------
|-------------------------------------------------------------------------
|-4-4-4-4-4-4-4-4-4-4-4-4-4-4-4-4--7-7-7--4-4-4-4-4-4-4-4-7-7-7-7-7-7-7-7-
|-4-4-4-4-4-4-4-4-4-4-4-4-4-4-4-4--7-7-7--4-4-4-4-4-4-4-4-7-7-7-7-7-7-7-7-
|-2-2-2-2-2-2-2-2-2-2-2-2-2-2-2-2--5-5-5--2-2-2-2-2-2-2-2-5-5-5-5-5-5-5-5-
|-------------------------------------------------------------------------

 -----------------------------------------------------------------|
 -----------------------------------------------------------------|
 -9-9-9-9-9-9-9-9--4-4-4-4-4-4-4-4-4-4-4-4-4-4-4-4--7-7-7--7-7-7--|
 -9-9-9-9-9-9-9-9--4-4-4-4-4-4-4-4-4-4-4-4-4-4-4-4--7-7-7--7-7-7--|
 -7-7-7-7-7-7-7-7--2-2-2-2-2-2-2-2-2-2-2-2-2-2-2-2--5-5-5--5-5-5--|
 -----------------------------------------------------------------|
 
and then... - remember pm whatever is below these> |___| 

    |_______|   |_______|   |_____|   |_____|   |_______|   |_______|
|---------------------------------------------------------------------
|---------------------------------------------------------------------
|-------------------------4--4-4-4--4--4-4-4--------------------------
|-4--4-4-4-4--2--2-2-2-2--4--4-4-4--4--4-4-4--4--4-4-4-4--5--5-5-5-5--
|-4--4-4-4-4--2--2-2-2-2--2--2-2-2--2--2-2-2--4--4-4-4-4--5--5-5-5-5--
|-2--2-2-2-2--0--0-0-0-0----------------------2--2-2-2-2--3--3-3-3-3--

 -------------------------|
 -------------------------|
 -------------------------|  play twice
 -7-7-7-7-7-7-7-7-7-7-7-7-|
 -7-7-7-7-7-7-7-7-7-7-7-7-|
 -5-5-5-5-5-5-5-5-5-5-5-5-|

and after that...

|---------------------------------------------------------|
|---------------------------------------------------------|
|---------------------------------12-12-12-12-12-12-12-12-|
|-7-7-7-7-7-7-7-7-2-2-2-2-2-2-2-2-12-12-12-12-12-12-12-12-|
|-7-7-7-7-7-7-7-7-2-2-2-2-2-2-2-2-10-10-10-10-10-10-10-10-|
|-5-5-5-5-5-5-5-5-0-0-0-0-0-0-0-0-------------------------|

|-------------------------------------------------------------------------|
|-------------------------------------------------------------------------|
|-7-7-7-7-7-7-7-7---------------------------------12-12-12-12-12-12-12-12-|
|-7-7-7-7-7-7-7-7-7-7-7-7-7-7-7-7-2-2-2-2-2-2-2-2-12-12-12-12-12-12-12-12-|
|-5-5-5-5-5-5-5-5-7-7-7-7-7-7-7-7-2-2-2-2-2-2-2-2-10-10-10-10-10-10-10-10-|
|-----------------5-5-5-5-5-5-5-5-0-0-0-0-0-0-0-0-------------------------|

play the above twice, then...

|-----------------------------------------------------------|
|-----------------------------------------------------------|
|-7-7-7-7-7-7-7-7---------------------------------12-11-9-7-|
|-7-7-7-7-7-7-7-7-7-7-7-7-7-7-7-7-2-2-2-2-2-2-2-2-12-11-9-7-|
|-5-5-5-5-5-5-5-5-7-7-7-7-7-7-7-7-2-2-2-2-2-2-2-2-10--9-7-5-|
|-----------------5-5-5-5-5-5-5-5-0-0-0-0-0-0-0-0-----------|

lyrics

won more time for ho jo, you know i can't wait
another wasted line
i'm sittin' in the corner, i can feel the weight 
of my head on top of my spine
there's nothing to be scared of once you've seen the light
reflecting through the screen
a eudaemonistic life composedof tar and nicotine
you know it, you know it, you know it
cause you've seenit, now you believe it
you know it because it seems so real, 
you know it cause you've seen it, now you believe it
you know it cause it seems so real
it seems so real, it seems so real, it seems so real
sit back and relax and do nothin', na na na na 
you'll laugh then you'll cry then feel nothin', na na na na 
implanted images of morality, images of life they seem so real 
one more time for ho jo, what does it mean?
i'm not sure i know, while looking for somebody
deep inside a dream, my sunshine turns to snow
now it's blowin' inside i don't feel the cold
yet i'm frozen to my seat, my eyes have seen the truth 
and still my mind admits defeat



NOFX albums
2003 War on Errorism
2000 Pump Up the Valuum
1997 So Long And Thanks For All The Shoes
1996 Heavy Petting Zoo
1995 I Heard They Suck Live!!
1994 Punk in Drublic
1993 The Longest Line
1993 White Trash, Two Heebs & A Bean
1991 Ribbed
1989 S & M Airlines
White Trash, Two Heebs & A Bean tabs
01Soul Doubt tabbass tab
02Stickin In My Eye tabbass tab
03Bob tabbass tab
04You're Bleeding tabbass tab
05Straight Edge tabbass tab
06Liza & Louise tabbass tab
07The Bag tabbass tab
08Please Play This Song On The Radio tabbass tab
09Warm tabbass tab
10I Wanna Be Your Baby tabbass tab
11Johnny Appleseed tabbass tab
12She's Gone tabbass tab
13Buggley Eyes tabbass tab

 

1