Search tabs:
Browse artists: 0-9 | A | B | C | D | E | F | G | H | I | J | K | L | M | N | O | P | Q | R | S | T | U | V | W | X | Y | Z
/ NOFX / White Trash, Two Heebs & A Bean (1993) / You're Bleeding guitar tab


Date: Mon, October 13 1997
From: Peter Ferragine (iginition@yesic.com)
Group: NOFX
Album: White Trash, Two Heebs and a Bean
Released: 1992 epitaph records
Track: 4
Title: you're bleeding

x - scratch
pm - palm mute


intro - guitar 1

|-------------------------------------------------|
|-------------------------------------------------|
|-14-14-14-14-13-13-13-13-12-12-12-12-12-12-12-12-|
|--x--x--x--x--x--x--x--x--x--x--x--x--x--x--x--x-|
|-12-12-12-12-11-11-11-11-10-10-10-10-10-10-10-10-|
|-------------------------------------------------|

guitar 2

|----------------------------------|
|----------------------------------|
|----5--------5--------5--------5--|
|-3--5--7--3--5--7--3--5--7--3--5--|
|-3--3--7--3--3--7--3--3--7--3--3--|
|-1-----5--1-----5--1-----5--1-----|

pre verse

|---------------------------------|
|---------------------------------|
|-5-5-5-5-------------------------|
|-5-5-5-5-5-5-5-5-7-7-7-7-3-3-3-3-|
|-3-3-3-3-5-5-5-5-7-7-7-7-3-3-3-3-|
|---------3-3-3-3-5-5-5-5-1-1-1-1-|

verse                                   chorus

pm________________________________|     
|---------------------------------|     |-------------------------|
|---------------------------------|     |-------------------------|
|-5-5-5-5-------------------------|     |----5--7--------5--7-----|
|-5-5-5-5-5-5-5-5-7-7-7-7-3-3-3-3-|     |-5--5--7--9--3--5--7--9--|
|-3-3-3-3-5-5-5-5-7-7-7-7-3-3-3-3-|     |-5--3--5--9--3--3--5--9--|
|---------3-3-3-3-5-5-5-5-1-1-1-1-|     |-3--------7--1--------7--|

post chorus

|---------------------------------------------------|
|---------------------------------------------------|
|----3--5-------------------3--5--5-5-5-5--9-9-9-9--|
|-3--3--5--5-5-5--7--9---3--3--5--5-5-5-5--9-9-9-9--|
|-3--1--3--5-5-5--7--9---3--1--3--3-3-3-3--7-7-7-7--|
|-1--------3-3-3--5--7---1--------------------------|

lyrics

you've got the beauty, but that don't mean a thing
a bland reciprocation, but that doesn't bother me
you're happier with lights on underneath a darkened sky
only in the spotlight can you tell me of your crimes
i undestand the situation, but i can't 
seem to understand the motivations you once had
i recall a message i once left behind a screen
i was entranced, when you were never there for me
you're draining, you're draining me, i'm not a tub
what ever happened to the girl i used to hold
i held in such a high regard, where is the girl who had it all?
i used to think i wasn't worthy of your cause, i used to feel so lucky
until the day i felt a weakness in my arms
i knew from where it had been coming
you're bleeding, you're bleeding me, i can recall
the passions you once had where did they go?
i knew a girl who had it all, i knew a girl where did she go?



NOFX albums
2003 War on Errorism
2000 Pump Up the Valuum
1997 So Long And Thanks For All The Shoes
1996 Heavy Petting Zoo
1995 I Heard They Suck Live!!
1994 Punk in Drublic
1993 The Longest Line
1993 White Trash, Two Heebs & A Bean
1991 Ribbed
1989 S & M Airlines
White Trash, Two Heebs & A Bean tabs
01Soul Doubt tabbass tab
02Stickin In My Eye tabbass tab
03Bob tabbass tab
04You're Bleeding tabbass tab
05Straight Edge tabbass tab
06Liza & Louise tabbass tab
07The Bag tabbass tab
08Please Play This Song On The Radio tabbass tab
09Warm tabbass tab
10I Wanna Be Your Baby tabbass tab
11Johnny Appleseed tabbass tab
12She's Gone tabbass tab
13Buggley Eyes tabbass tab

 

1