Search tabs:
Browse artists: 0-9 | A | B | C | D | E | F | G | H | I | J | K | L | M | N | O | P | Q | R | S | T | U | V | W | X | Y | Z
/ Overkill / Feel the Fire (1985) / Blood and Iron guitar tab

Overkill : Blood and Iron
Tabbed by: redhurley182@hotmail.com    Dustin Ruther


riff1             pm                pm          play 4 times
------------------------------------------------------------------------
------------------------------------------------------------------------
------------------------------------------------------------------------
------------5--7--------------8--7--------------5--7--8--5--------------
0--0--0--0--3--5--0--0--0--0--6--5--0--0--0--0--3--5--6--3--------------
------------------------------------------------------------------------


   riff2       playtwice
|-----------------------------------------------------------------------
|-----------------------------------------------------------------------
|-----------------------------------------------------------------------
|--------------2--3--------------5--2--------------2--3--8--7--5--------
|--0--0--0--0--0--1--0--0--0--0--3--0--0--0--0--0--0--1--6--5--3--0-----
|-----------------------------------------------------------------------



------------------------------------------------------------|-----------
------------------------------------------------------------|-----------
------------------------------------------------------------|-----------
---------2--3--------------5--2--------------2--3-----------|-----------
0--0--0--0--1--0--0--0--0--3--0--0--0--0--0--0--1--3--5--3--|--3--------
---------------------------------------------------1--3--1--|-----------


riff 3
------------------------------------------------------------------------
------------------------------------------------------------------------
------------------------------------------------------------------------
---------------------------------------------5--4-----4--5--4-----------
3--3--3--3--3--3--3--3--3--3--3--3--3--3--3--3--2--5--2--3--2--5--3-----
---------------------------------------------------3-----------3--1-----



------------------------------------------------------------------------
------------------------------------------------------------------------
------------------------------------------------------------------------
---4--5--4--------------------------------------------------------------
5--2--3--2--5--3--5--3--3--3--3--3--3--3--3--3--3--3--3--3--3--3--3-----
3-----------3--1--3-----------------------------------------------------


         then play riff 1 twice
------|-----------------------------------------------------------------
------|-----------------------------------------------------------------
------|-----------------------------------------------------------------
5--4--|-----------------------------------------------------------------
3--2--|-----------------------------------------------------------------
------|-----------------------------------------------------------------



------------------------------------------------------------------------
------------------------------------------------------------------------
------------------------------------------------------------------------
------------------------------------------------------------------------
------------------------------------------------------------------------
------------------------------------------------------------------------


   then riff 2 3 times
|-----------------------------------------------------------------------
|-----------------------------------------------------------------------
|-----------------------------------------------------------------------
|-----------------------------------------------------------------------
|-----------------------------------------------------------------------
|-----------------------------------------------------------------------


                                    then riff 3
---------------------------------|--------------------------------------
---------------------------------|--------------------------------------
---------------------------------|--------------------------------------
---------------------------------|--------------------------------------
---------------------------------|--------------------------------------
---------------------------------|--------------------------------------


                           riff 1 play twice
------------------------|-----------------------------------------------
------------------------|-----------------------------------------------
------------------------|-----------------------------------------------
------------------------|-----------------------------------------------
------------------------|-----------------------------------------------
------------------------|-----------------------------------------------



------------------------------------------------|-----------------------
------------------------------------------------|-----------------------
------------------------------------------------|-----------------------
------------------------------------------------|--2--2-----------------
------------------------------------------------|--0--0--0--0--0--0-----
------------------------------------------------|-----------------------



------------------------------------------------------------------------
------------------------------------------------------------------------
------------------------------------------------------------------------
------------------------------------------------------------------------
0--0--0--0--0--0--0--0--0--0--0--0--2--0--2--0--0--0--0--2--2--2--2-----
------------------------------------------------------------------------



------------------------------------------------------------------------
------------------------------------------------------------------------
------------------------------------------------------------------------
------------------------------------2-----------------------------------
2--2--2--2--2--2--2--2--2--2--2--2--0-----------------2--2--2--2--2-----
------------------------------------------------------------------------



------------------------------------------------------------------------
------------------------------------------------------------------------
------------------------------------------------------------------------
---------------------------------2--------------------------------------
2--2--2--2--2--2--2--2--2--2--2--0--2--2--2--2--2--2--2--2--2--2--2-----
------------------------------------------------------------------------



------------------------------------------------------------------------
------------------------------------------------------------------------
------------------------------------------------------------------------
---------------2--------------------------------------------------2-----
2--2--2--2--2--0--2--2--2--2--2--2--2--2--2--2--2--2--2--2--2--2--0-----
------------------------------------------------------------------------



------------------------------------------------------------------------
------------------------------------------------------------------------
------------------------------------------------------------------------
4--5--7--7--7--7--7--7--7--7--7--7--7--7--5-----------------7--7--7-----
2--3--5--5--5--5--5--5--5--5--5--5--5--5--3-----------------5--5--5-----
------------------------------------------------------------------------



------------------------------------------------------------------------
------------------------------------------------------------------------
------------------------------------------------------------------------
7--7--7--7--7--7--7--7--7--5--7--7--7--7--7--7--7--7--7--7--7--7--5-----
5--5--5--5--5--5--5--5--5--3--5--5--5--5--5--5--5--5--5--5--5--5--3-----
------------------------------------------------------------------------


                                                play riff1 4 times
---------------------------------------------|--------------------------
---------------------------------------------|--------------------------
------------------------------------5--6--7--|--------------------------
7--7--7--7--8--8--8--8--9--9--9--9--3--4--5--|--------------------------
5--5--5--5--6--6--6--6--7--7--7--7-----------|--------------------------
---------------------------------------------|--------------------------



------------------------------------------------------------------------
------------------------------------------------------------------------
------------------------------------------------------------------------
------------------------------------------------------------------------
------------------------------------------------------------------------
------------------------------------------------------------------------


play 3 times         riff 4
------------------------------------------------------------|-----------
------------------------------------------------------------|-----------
---------------------------3--3-----------------------------|-----------
---2--5----5-------5-------1--1--5----5-------5-------------|-----------
---0--3p0--3p---0--3p---0--------3p0--3p---0--3p---0--3--5--|-----------
------------------------------------------------------1--3--|-----------


riff 4 part2                     play riff2 3 times
------------------------------|-----------------------------------------
------------------------------|-----------------------------------------
------------------------------|-----------------------------------------
5-------5----5----------------|-----------------------------------------
3p---0--3p0--3p---0--5--6--7--|-----------------------------------------
---------------------3--4--5--|-----------------------------------------



---------------------------------------------------------|--------------
---------------------------------------------------------|--------------
---------------------------------------------------------|--------------
---------------------------------------------------------|--------------
---------------------------------------------------------|--------------
---------------------------------------------------------|--------------


play riff 1 twice
------------------------------------------------------------------------
------------------------------------------------------------------------
------------------------------------------------------------------------
------------------------------------------------------------------------
------------------------------------------------------------------------
------------------------------------------------------------------------


                        play this twice
---------------|--------------------------------------------------------
---------------|--------------------------------------------------------
---------------|--------------------------------3--3--------------------
---------------|--------2--5----5-------5-------1--1-----------5--------
---------------|--------0--3p0--3p---0--3p---0-----------------3p-------
---------------|--------------------------------------------------------



-------------------------|----------------------------------------------
-------------------------|----------------------------------------------
-------------------------|----------------------------------------------
---5----5----------------|----------------------------------------------
0--3p0--3p---0--5--6--7--|--3--3--3--3--3--3--3--3--3--3--3--3--3--3----
----------------3--4--5--|--1--1--1--1--1--1--1--1--1--1--1--1--1--1----


               (strang slowing down effect at this part
------------------------------------------------------------------------
------------------------------------------------------------------------
------------------------------------------------------------------------
------------------------------------------------------------------------
3--3-----3--5--7--------------------------------------------------------
1--1-----1--3--5\\-------------------------------------------------------


Overkill albums
2003 Kill Box 13
1999 Necroshine
1997 From the Underground and Below
1996 The Killing Kind
1994 W.F.O.
1993 I Hear Black
1991 Horrorscope
1989 The Years of Decay
1988 Under the Influence
1987 Taking Over
1985 Feel the Fire
Feel the Fire tabs
01Raise the Dead tabbass tab
02Rotten to the Core tabbass tab
03There's No Tomorrow tabbass tab
04Second Son tabbass tab
05Hammerhead tabbass tab
07Blood and Iron tabbass tab
08Kill at Command tabbass tab
09Overkill tabbass tab
10Sonic Reducer tabbass tab

 

1