Search tabs:
Browse artists: 0-9 | A | B | C | D | E | F | G | H | I | J | K | L | M | N | O | P | Q | R | S | T | U | V | W | X | Y | Z
/ Overkill / Feel the Fire (1985) / Hammerhead guitar tab

join the death/black tab mailing list by emailing
                          Overkill : Hammerhead
                               Starts out with drum intro


               play 2 times         (riff1)
E-----------|-----------------------------------------------------------
B-----------|-----------------------------------------------------------
G---9--9--9-|-----------7--9-----------4--5-----------7--9--------------
D---9--9--9-|-----------7--9-----------4--5-----------7--9--------------
A---7--7--7\|-----------5--7-----------2--3-----------5--7--5-----7-----
E-----------|--0--0--0--------0--0--0--------0--0--0--------------------



E-----------------------------------------------------------------------
B-----------------------------------------------------------------------
G-------------------7--9-----------4--5-----------7--9--5--4------------
D-------------------7--9-----------4--5-----------7--9--5--4------------
A------8^-----------5--7-----------2--3-----------5--7--3--2------------
E----------0--0--0--------0--0--0--------0--0--0------------------------


    play 3 times (riff2)
E-----------------------------------------------------------------------
B-----------------------------------------------------------------------
G---------------------------------------------------------------9-------
D---------------------------------------------------------------9-------
A---------------------------------------------------------------7-------
E------0-----0--0--0--0--0-----0--0--0--0--0-----0--0--0--0--0----------



E-----------------------------------------------------------------------
B-----------------------------------------------------------------------
G------------------------------------------------------------7----------
D------------------------------------------------------------7----------
A------------------------------------------------------------5----------
E---0-----0--0--0--0--0-----0--0--0--0--0-----0--0--0--0--0-----0-------



E-----------------------------------------------------------------------
B-----------------------------------------------------------------------
G------------------------------------------------------9----------------
D------------------------------------------------------9----------------
A------------------------------------------------------7----------------
E---0--0--0--0--0-----0--0--0--0--0-----0--0--0--0--0-----0-----0--0----


                                                             riff3
E------------------------------------------------------|----------------
B------------------------------------------------------|----------------
G------------------------------------------------4--5--|----------------
D------------------------------------------------4--5--|----------------
A------------------------------------------------2--3--|----------------
E---0--0--0-----0--0--0--0--0-----0--0--0--0--0--------|--0-----0--0----



E-----------------------------------------------------------------------
B-----------------------------------------------------------------------
G---9--------------9--------------9-----------------1--9----------------
D---9--------------9--------------9-----------------1--9----------------
A---7--------------7--------------7-----------------8--7----------------
E------0-----0--0-----0-----0--0-----0-----0--0-----------0-----0--0----



E-----------------------------------------------------------------------
B-----------------------------------------------------------------------
G---9--------------9--------------7--------------7--------------9-------
D---9--------------9--------------7--------------7--------------9-------
A---7--------------7--------------5--------------5--------------7-------
E------0-----0--0-----0-----0--0-----0-----0--0-----0-----0--0-----0----



E-----------------------------------------------------------------------
B-----------------------------------------------------------------------
G------------9--------------9--------------1--9--------------9----------
D------------9--------------9--------------1--9--------------9----------
A------------7--------------7--------------8--7--------------7----------
E------0--0-----0-----0--0-----0-----0--0--------0-----0--0-----0-------


                                              play riff1 2 times
E------------------------------------------|----------------------------
B------------------------------------------|----------------------------
G---------9--------------7--------------7--|----------------------------
D---------9--------------7--------------7--|----------------------------
A---------7--------------5--------------5--|----------------------------
E---0--0-----0-----0--0-----0-----0--0-----|----------------------------



E------------------------------------------------------------------|----
B------------------------------------------------------------------|----
G------------------------------------------------------------------|----
D------------------------------------------------------------------|----
A------------------------------------------------------------------|----
E------------------------------------------------------------------|----


    play riff2 2 times
E-----------------------------------------------------------------------
B-----------------------------------------------------------------------
G-----------------------------------------------------------------------
D-----------------------------------------------------------------------
A-----------------------------------------------------------------------
E-----------------------------------------------------------------------


                            play riff3
E------------------------|----------------------------------------------
B------------------------|----------------------------------------------
G------------------------|----------------------------------------------
D------------------------|----------------------------------------------
A------------------------|----------------------------------------------
E------------------------|----------------------------------------------


                   riff4
E---------------|-------------------------------------------------------
B---------------|-------------------------------------------------------
G---------------|-----------------------1-------------------------------
D---------------|-----------------------1-----------------------1-------
A---------------|--5h7-----7p5-----5h7--8--5h7-----7p5-----5h7--1--5----
E---------------|---------------7-----------------------7-------8-------



E-----------------------------------------------------------------------
B-----------------------------------------------------------------------
G-----------------------1--------1--9-----------------------1-----------
D-----------------------1--9--1--1--9-----------------------1-----------
A---h7-----7p5-----5h7--8--9--1--8--7--5h7-----7p5-----5h7--8--5h7------
E---------------7----------7--8---------------------7-------------------



E-----------------------------------------------------------------------
B-----------------------------------------------------------------------
G-------------------------------------------1--------1--9---------------
D-------------------1-----------------------1--9--1--1--9---------------
A------7p5-----5h7--1--5h7-----7p5-----5h7--8--9--1--8--7--5h7-----7----
E-----------7-------8---------------7----------7--8---------------------



E-----------------------------------------------------------------------
B-----------------------------------------------------------------------
G---------------1-----------------------------------------------1-------
D---------------1-----------------------1-----------------------1--9----
A---p5-----5h7--8--5h7-----7p5-----5h7--1--5h7-----7p5-----5h7--8--9----
E-------7-----------------------7-------8---------------7----------7----



E-----------------------------------------------------------------------
B-----------------------------------------------------------------------
G------1--9-----------------------1-------------------------------------
D---1--1--9-----------------------1-----------------------1-------------
A---1--8--7--5h7-----7p5-----5h7--8--5h7-----7p5-----5h7--1--5h7--------
E---8---------------------7-----------------------7-------8-------------



E-----------------------------------------------------------------------
B-----------------------------------------------------------------------
G----------------1--------1--9------------------------------------------
D----------------1--9--1--1--9------------------------------------------
A---7p5-----5h7--8--9--1--8--7------------------------------------------
E--------7----------7--8--------2-----2--2--2--2--2-----2--2--2--2------



E-----------------------------------------------------------------------
B-----------------------------------------------------------------------
G------------------------2----------------------------------------------
D------------------------2----------------------------------------------
A------------------------0----------------------------------------------
E---2-----2--2--2--2--2-----2-----2--2--2--2--2-----2--2--2--2--2-------



E-----------------------------------------------------------------------
B-----------------------------------------------------------------------
G-----------------------------------------------------------------------
D------------------5----------------------------------------------------
A------------------5----------------------------------------------------
E---2--2--2--2--2--3--2-----2--2--2--2--2-----2--2--2--2--2-----2--2----



E-----------------------------------------------------------------------
B-----------------------------------------------------------------------
G------------2----------------------------------------------------------
D------------2----------------------------------------------------------
A------------0----------------------------------------------------------
E---2--2--2-----2-----2--2--2--2--2-----2--2--2--2--2-----2--2--2--2----



E-----------------------------------------------------------------------
B-----------------------------------------------------------------------
G-----------------------------------------------------------------------
D-----------------------------------------------------------------------
A-----------------------------------------------------------------------
E---2-----3-----3--3--3--3--3-----3--3--3--3--3-----3--3--3--3--3-------



E-----------------------------------------------------------------------
B-----------------------------------------------------------------------
G---------------------------------------------------------------2-------
D---------------------------------------------------------------2-------
A---------------------------------------------------------------0-------
E---2-----2--2--2--2--2-----2--2--2--2--2-----2--2--2--2--2--------2----



E-----------------------------------------------------------------------
B-----------------------------------------------------------------------
G-----------------------------------------------------------------------
D---------------------------------------------------------5-------------
A---------------------------------------------------------5-------------
E------2--2--2--2--2-----2--2--2--2--2-----2--2--2--2--2--3--2-----2----



E-----------------------------------------------------------------------
B-----------------------------------------------------------------------
G------------------------------------------------------2----------------
D------------------------------------------------------2----------------
A------------------------------------------------------0----------------
E---2--2--2--2-----2--2--2--2--2-----2--2--2--2--2--------2-----2--2----



E-----------------------------------------------------------------------
B-----------------------------------------------------------------------
G------------------------------------------------------------1--9-------
D------------------------------------------------------9--1--1--9-------
A------------------------------------------------------9--1--8--7-------
E---2--2--2-----2--2--2--2--2-----2--2--2--2--2--------7--8-------------


    play riff4
E---|-----------------------------------------------|-------------------
B---|-----------------------------------------------|-------------------
G---|-----------------------------------------------|-------------------
D---|-----------------------------------------------|--2----------------
A---|-----------------------------------------------|--2----------------
E---|-----------------------------------------------|--0----------------


                                    play riff1 2 times
E--------------------------|--------------------------------------------
B--------------------------|--------------------------------------------
G---------9--9--9--9--9--9-|--------------------------------------------
D---------9--9--9--9--9--9-|--------------------------------------------
A---------7--7--7--7--7--7\|--------------------------------------------
E--------------------------|--------------------------------------------



E---------------------------------------------------------|-------------
B---------------------------------------------------------|-------------
G---------------------------------------------------------|-------------
D---------------------------------------------------------|-------------
A---------------------------------------------------------|-------------
E---------------------------------------------------------|-------------


    play riff2 2 times
E-----------------------------------------------------------------------
B-----------------------------------------------------------------------
G-----------------------------------------------------------------------
D-----------------------------------------------------------------------
A-----------------------------------------------------------------------
E-----------------------------------------------------------------------


                            play riff3
E---------------------|-------------------------------------------------
B---------------------|-------------------------------------------------
G---------------------|-------------------------------------------------
D---------------------|-------------------------------------------------
A---------------------|-------------------------------------------------
E---------------------|-------------------------------------------------



E------------|----------------------------------------------------------
B------------|----------------------------------------------------------
G------------|-----------7--9-----------7--9-----------7--9-------------
D------------|-----------7--9-----------7--9-----------7--9-------------
A------------|-----------5--7-----------5--7-----------5--7-------------
E------------|--0--0--0--------0--0--0--------0--0--0--------0--0--0----



E-----------------------------------------------------------------------
B-----------------------------------------------------------------------
G---1--9-----------7--9-----------7--9-----------7--9--5-----------7----
D---1--9-----------7--9-----------7--9-----------7--9--5-----------7----
A---8--7-----------5--7-----------5--7-----------5--7--3-----------5----
E---------0--0--0--------0--0--0--------0--0--0-----------0--0--0-------



E-----------------------------------------------------------------------
B-----------------------------------------------------------------------
G---9-----------7--9-----------7--9-----------1--9-----------7--9-------
D---9-----------7--9-----------7--9-----------1--9-----------7--9-------
A---7-----------5--7-----------5--7-----------8--7-----------5--7-------
E------0--0--0--------0--0--0--------0--0--0--------0--0--0--------0----



E-----------------------------------------------------------------------
B-----------------------------------------------------------------------
G---------7--9-----------7--9-----------7-9-----7-9-----7-9-----1-------
D---------7--9-----------7--9-----------7-9-----7-9-----7-9-----1-------
A---------5--7-----------5--7-----------5/7-----5/7-----5/7-----8-------
E---0--0--------0--0--0--------0--0--0-------0-------0-------0-----0----



E-----------------------------------------------------------------------
B-----------------------------------------------------------------------
G---7-9-----7-9-----7-9-----------------7-9-----7-9-----7-9-----1-------
D---7-9-----7-9-----7-9-----1-----------7-9-----7-9-----7-9-----1-------
A---5/7-----5/7-----5/7-----1-----------5/7-----5/7-----5/7-----8-------
E--------0-------0-------0--8--0--0--0-------0-------0-------0-----0----



E-----------------------------------------------------------------------
B-----------------------------------------------------------------------
G---7-9-----7-9-----7-9-------------------------------------------------
D---7-9-----7-9-----7-9-----1-------------------------------------------
A---5/7-----5/7-----5/7-----1-------------------------------------------
E--------0-------0-------0--8--8^---------------------------------------



E-----------------------------------------------------------------------
B-----------------------------------------------------------------------
G---------------------9--9--9--9--9--9--9--9--9--9--9--9----------------
D---------------------9--9--9--9--9--9--9--9--9--9--9--9----------------
A---------------------7--7--7--7--7--7--7--7--7--7--7--7----------------
E---------------------0--0--0--0--0--0--0--0--0--0--0--0---\------------




========================================================================
==            Created with a demo version of BUCKET O' TAB            ==
==              tablature creation software for Windows               ==
==                   http://www.his.com/~gse/bucket                   ==
========================================================================


Overkill albums
2003 Kill Box 13
1999 Necroshine
1997 From the Underground and Below
1996 The Killing Kind
1994 W.F.O.
1993 I Hear Black
1991 Horrorscope
1989 The Years of Decay
1988 Under the Influence
1987 Taking Over
1985 Feel the Fire
Feel the Fire tabs
01Raise the Dead tabbass tab
02Rotten to the Core tabbass tab
03There's No Tomorrow tabbass tab
04Second Son tabbass tab
05Hammerhead tabbass tab
07Blood and Iron tabbass tab
08Kill at Command tabbass tab
09Overkill tabbass tab
10Sonic Reducer tabbass tab

 

1