Search tabs:
Browse artists: 0-9 | A | B | C | D | E | F | G | H | I | J | K | L | M | N | O | P | Q | R | S | T | U | V | W | X | Y | Z
/ Overkill / Feel the Fire (1985) / Second Son guitar tab

Overkill : Second Son


         play 3 times (riff1)
E-----|-----------------------------------------------------------------
B-----|-----------------------------------------------------------------
G-----|--2-----------------3-----------------3-----4-----6-----3--------
D---7\|--2-----------------1-----------------1-----2-----6-----1--------
A-----|--0--0--0--0--0--0-----0--0--0--0--0-----0-----0--4--0-----0-----
E-----|-----------------------------------------------------------------


       play 2times (riff2)
E---|-------------------------------------------------------------------
B---|-------------------------------------------------------------------
G---|--3-----------------3--3--0--3-----------------3--3--0--3--6-------
D---|--1--1--1--1--1--1--1--1--0--1--1--1--1--1--1--1--1--0--1--6-------
A---|-----------------------------------------------------------4--4----
E---|-------------------------------------------------------------------



E-----------------------------------------------------------------------
B-----------------------------------------------------------------------
G---------------6--6--6-----3-----4-----6-----3-----3-------------------
D---------------6--6--6-----1-----2-----6-----1-----1--1--1--1--1--1----
A---4--4--4--4--4--4--4--0-----0-----0--4--0-----0----------------------
E-----------------------------------------------------------------------



E-----------------------------------------------------------------------
B-----------------------------------------------------------------------
G---3--3--0--3-----------------3--3--0--3--6-----------------6--6--6----
D---1--1--0--1--1--1--1--1--1--1--1--0--1--6-----------------6--6--6----
A------------------------------------------4--4--4--4--4--4--4--4--4----
E-----------------------------------------------------------------------



E-----------------------------------------------------------------------
B-----------------------------------------------------------------------
G------3-----4-----6-----3-----------3-----------------------------3----
D------1-----2-----6-----1-----------3--4--4--------4-----6--6-----1----
A---0-----0-----0--4--0-----0--------1--4--4--------4-----6--6----------
E---------------------------------------2--2--------2-----4--4----------



E-----------------------------------------------------------------------
B-----------------------------------------------------------------------
G------------------3--3--0--3--3-----------------------4--3-------------
D---1--1--1--1--1--1--1--0--1--3--4--4--------6--6-----2--1--1--1--1----
A------------------------------1--4--4--------6--6----------------------
E---------------------------------2--2--------4--4----------------------



E-----------------------------------------------------------------------
B-----------------------------------------------------------------------
G---------3-----6-----6-----3--------------------6-----8--3-------------
D---1--1--1-----4-----6-----1--1--1--1--1--1-----4-----6--1--1--1--1----
A------------4-----4--4--4--------------------4-----4-------------------
E-----------------------------------------------------------------------



E-----------------------------------------------------------------------
B-----------------------------------------------------------------------
G---------3-----6-----6-----3-------------------------------------------
D---1--1--1-----4-----6-----1--1--1--1--------1--1--1-------------------
A------------4-----4--4--4-----------------------------4--3--1--0--1----
E-----------------------------------------------------------------------



E------|----------------------------------------------------------------
B------|----------------------------------------------------------------
G------|----------------------------------------------------------------
D------|----------------------------------------------------------------
A---4--|--------4-----------------6-----------4-----------------6-------
E------|--------4-----------------6-----------4-----------------6-------


    pick slide
E-----------------------------------------------------------------------
B-----------------------------------------------------------------------
G------------------------------------------------------6----------------
D------------------------------------------------------6----------------
A------------------------------------------------------4--4--4--4--4----
E-----------------------------------------------------------------------



E-----------------------------------------------------------------------
B-----------------------------------------------------------------------
G------6--6-----6-----3-----------------3--3--0--3--6-------------------
D------6--6--0--6-----1--1--1--1--1--1--1--1--0--1--6-------------------
A---4--4--4--0--4-----------------------------------4--4--4--4--4--4----
E-----------------------------------------------------------------------



E-----------------------------------------------------------------------
B-----------------------------------------------------------------------
G---6--6-----6--3-----------3--3-----------3--3--6-----------------6----
D---6--6--0--6--1--1--1--1--1--1--1--1--1--1--1--6-----------------6----
A---4--4--0--4-----------------------------------4--4--4--4--4--4--4----
E-----------------------------------------------------------------------



E-----------------------------------------------------------------------
B-----------------------------------------------------------------------
G---6-----6-----3-----------------3--3--0--3-----6--6-------------------
D---6--0--6-----1--1--1--1--1--1--1--1--0--1-----6--6-------------------
A---4--0--4--------------------------------------4--4-----------6-------
E---------------------------------------------------------------6-------



E-----------------------------------------------------------------------
B-----------------------------------------------------------------------
G---------6--6-----------------6--6-----------6--------4-----------6----
D---------6--6-----------------6--6-----------6--------4-----------4----
A---------4--4--------6--------4--4--------6--4--------2--------4-------
E---------------------6--------------------6----------------------------



E-----------------------------------------------------------------------
B-----------------------------------------------------------------------
G------6----------------------------------------------------------------
D------6----------------------------------------------------------------
A---4--4-----4h6--6--4h6--6--4h6--6--4h6--6--------6h7--7--6h7--7--6----
E-----------------------------------------------------------------------



E-----------------------------------------------------------------------
B-----------------------------------------------------------------------
G-----------------------------------------------------------------------
D-----------------------------------------------------------------------
A---h7--7--6h7--7-----------4h6--6--4h6--6--4h6--6--4h6--6--------6-----
E-----------------------------------------------------------------------



E-----------------------------------------------------------------------
B-----------------------------------------------------------------------
G-----------------------------------------------------------------------
D-----------------------------------------------------------------------
A---h7--7--6h7--7--6h7--7--6h7--7--------7h9--9--7h9--9--7h9--9--7------
E-----------------------------------------------------------------------



E-----------------------------------------------------------------------
B-----------------------------------------------------------------------
G------------------------------------------------------4h6--2h4--0------
D----------------4h6--6--4h6--6--4h6--6--4h6--6-------------------------
A---h9--9---------------------------------------------------------------
E-----------------------------------------------------------------------



E-----------------------------------------------------------------------
B-----------------------------------------------------------------------
G---h2------------------------------------------------------------------
D-------2h4-------------------------------------------------------------
A------------------4h6--6--4h6--6--4h6--6--4h6--6--------6h7--7--6------
E-----------------------------------------------------------------------



E-----------------------------------------------------------------------
B-----------------------------------------------------------------------
G-----------------------------------------------------------------------
D-----------------------------------------------------------------------
A---h7--7--6h7--7--6h7--7-----------4h6--6--4h6--6--4h6--6--4h6--6------
E-----------------------------------------------------------------------



E-----------------------------------------------------------------------
B-----------------------------------------------------------------------
G-----------------------------------------------------------------------
D-----------------------------------------------------------------------
A---------6h7--7--6h7--7--6h7--7--6h7--7--------7h9--9--7h9--9--7h9-----
E-----------------------------------------------------------------------



E-----------------------------------------------------------------------
B-----------------------------------------------------------------------
G----------------------------------------------------------4--4--4------
D--------------------4h6--6--4h6--6--4h6--6--4h6--6---------------------
A---9--7h9--9-----------------------------------------------------------
E-----------------------------------------------------------------------



E-----------------------------------------------------------------------
B-----------------------------------------------------------------------
G---3--3--3-------------------------------------------------------------
D------------0--0--0--2--2--2-------------------------------------------
A---------------------------------4h6--6--4h6--6--4h6--6--4h6--6--------
E-----------------------------------------------------------------------



E-----------------------------------------------------------------------
B-----------------------------------------------------------------------
G-----------------------------------------------------------------------
D-----------------------------------------------------------------------
A------6h7--7--6h7--7--6h7--7--6h7--7--------4h6--6--4h6--6--4h6--6-----
E-----------------------------------------------------------------------



E-----------------------------------------------------------------------
B-----------------------------------------------------------------------
G-----------------------------------------------------------------------
D-----------------------------------------------------------------------
A---4h6--6-----6h7--7--6h7--7--6h7--7--6h7--7--------7h9--9--7h9--9-----
E-----------------------------------------------------------------------



E---------------------------------------------------------------2p1-----
B-----------------------------------------------------------------------
G-----------------------------------------------------------------------
D-------------------------4h6--6--4h6--6--4h6--6--4h6--6----------------
A---7h9--9--7h9--9------------------------------------------------------
E-----------------------------------------------------------------------



E---0-------------------------------------------------------------------
B------2p1--0-----------------------------------------------------------
G--------------2p1--0---------------------------------------------------
D-----------------------------------------------------------------------
A----------------------------4h6--6--4h6--6--4h6--6--4h6--6-----6h7-----
E-----------------------------------------------------------------------



E-----------------------------------------------------------------------
B-----------------------------------------------------------------------
G-----------------------------------------------------------------------
D------------------------------------4--2--0----------------------------
A---7--6h7--7--6h7--7--6h7--7--------------------4h6--6--4h6--6--4------
E-----------------------------------------------------------------------



E-----------------------------------------------------------------------
B-----------------------------------------------------------------------
G-----------------------------------------------------------------------
D-----------------------------------------------------------------------
A---h6--6--4h6--6-----6h7--7--6h7--7--6h7--7--6h7-----7h9--9--7h9--9----
E-----------------------------------------------------------------------



E-----------------------------------------------------------------------
B-----------------------------------------------------------------------
G-----------------------------------------------------------------------
D----------------------------------4h6--6--4h6--6--4h6--6--4h6--6-------
A---7h9--9--7h9--9------------------------------------------------------
E-----------------------------------------------------------------------



E-----------------------------------------------------------------------
B-----------------------------------------------------------------------
G-----------------------------------------------------------------------
D------6h7--7--6h7--7--6h7--7--6h7--7--------7h9--9--7h9--9--7h9--9-----
A-----------------------------------------------------------------------
E-----------------------------------------------------------------------



E-----------------------------------------------------------------------
B-----------------------------------------------------------------------
G-----------------------------------------------------------------------
D---7h9--9-----7--7--7--5--5--5--3--3--3--0--0--0-----------------------
A-----------------------------------------------------------------------
E-----------------------------------------------------------------------


    play riff 1 2 times
E-----------------------------------------------------------------------
B-----------------------------------------------------------------------
G-----------------------------------------------------------------------
D-----------------------------------------------------------------------
A-----------------------------------------------------------------------
E-----------------------------------------------------------------------


                                  then play
E-----------------------------------------------------------------------
B-----------------------------------------------------------------------
G-----------------------------------------------------------------------
D-----------------------------------------------------------------------
A-----------------------------------------------------------------------
E-----------------------------------------------------------------------


                                      play riff1 6 times
E------------|--0h5----------7--|---------------------------------------
B------------|-------6p5--0-----|---------------------------------------
G------------|------------------|---------------------------------------
D------------|------------------|---------------------------------------
A------------|------------------|---------------------------------------
E------------|------------------|---------------------------------------



E------------------------------------------------------------------|----
B------------------------------------------------------------------|----
G------------------------------------------------------------------|----
D------------------------------------------------------------------|----
A------------------------------------------------------------------|----
E------------------------------------------------------------------|----


                   play riff1 1 time
E---------------|-------------------------------------------------------
B---------------|-------------------------------------------------------
G------6-----6--|-------------------------------------------------------
D------4-----6--|-------------------------------------------------------
A---4-----4--4--|-------------------------------------------------------
E---------------|-------------------------------------------------------



E------------------------------------|----------------------------------
B------------------------------------|----------------------------------
G------------------------------------|-----6-----6-----4----------------
D------------------------------------|-----4-----6-----4----------------
A------------------------------------|--4-----4--4--4--2----------------
E------------------------------------|----------------------------------



E-----------------------------------------------------------------------
B-----------------------------------------------------------------------
G---------------6-----6-----6--8----------------------------------------
D---------------4-----6-----6--8----------------------------------------
A------------4-----4--4--4--4--6\---------------------------------------
E-----------------------------------------------------------------------



E-----------------------------------------------------------------------
B-----------------------------------------------------------------------
G-----------------------------------------------------------------------
D-----------------------------------------------------------------------
A-----------------------------------------------------------------------
E-----------------------------------------------------------------------



E-----------------------------------------------------------------------
B-----------------------------------------------------------------------
G-----------------------------------------------------------------------
D-----------------------------------------------------------------------
A-----------------------------------------------------------------------
E-----------------------------------------------------------------------




========================================================================
==            Created with a demo version of BUCKET O' TAB            ==
==              tablature creation software for Windows               ==
==                   http://www.his.com/~gse/bucket                   ==
========================================================================


Overkill albums
2003 Kill Box 13
1999 Necroshine
1997 From the Underground and Below
1996 The Killing Kind
1994 W.F.O.
1993 I Hear Black
1991 Horrorscope
1989 The Years of Decay
1988 Under the Influence
1987 Taking Over
1985 Feel the Fire
Feel the Fire tabs
01Raise the Dead tabbass tab
02Rotten to the Core tabbass tab
03There's No Tomorrow tabbass tab
04Second Son tabbass tab
05Hammerhead tabbass tab
07Blood and Iron tabbass tab
08Kill at Command tabbass tab
09Overkill tabbass tab
10Sonic Reducer tabbass tab

 

1