Search tabs:
Browse artists: 0-9 | A | B | C | D | E | F | G | H | I | J | K | L | M | N | O | P | Q | R | S | T | U | V | W | X | Y | Z
/ Overkill / From the Underground and Below (1997) / Genocya guitar tab

Genocya
Overkill
Guitar 1

      ^        ^        ^        ^        ^      ^    3x
E||----------------------------------------------------||
B||----------------------------------------------------||
G||*--------------------------------------------------*||
D||*--15-15-15-15-15-15-15-15-15-15-15-15-15-15-15-15-*||
A||----------------------------------------------------||
D||----------------------------------------------------||

Bass Part
-----------------------------------|-----------------------------------||
-----------------------------------|-----------------------------------||
*----------------------------------|----------------------------------*||
*----------------------------------|----------------------------------*||
-----------------------------------|-----------------------------------||
---0-0-0-0-0-0-0-0-3-3-3-3-3-3-3-3-|--1-1-1-1-1-1-1-1-6-6-6-6-5-6-5\\3--||


-----------------------------------|-----------------------------------||
-----------------------------------|-----------------------------------||
*----------------------------------|----------------------------------*||
*----------------------------------|----------------------------------*||
---0-----0-----0---3-----3-----3---|--1-----1-----1---6-------5-6-5-3--||
---0-0-0-0-0-0-0-0-3-3-3-3-3-3-3-3-|--1-1-1-1-1-1-1-1-6-6-6-6-5-6-5-3--||

Double Time
----------------------------------|----------------------------------|
----------------------------------|----------------------------------|
----------------------------------|----------------------------------|
----------------------------------|----------------------------------|
--0-----0-----0---3-----3-----3---|--1-----1-----1---6-------5-6-5-3-|
--0-0-0-0-0-0-0-0-3-3-3-3-3-3-3-3-|--1-1-1-1-1-1-1-1-6-6-6-6-5-6-5-3-|


----------------------------------|--------------------------------|
----------------------------------|--------------------------------|
----------------------------------|--------------------------------|
----------------------------------|--------------------------------|
--0-----0-----0---3-----3-----3---|--1-----1-----1-------3------3--|
--0-0-0-0-0-0-0-0-3-3-3-3-3-3-3-3-|--1-1-1-1-1-1-1-1-0-0-3--0-0-3--|


----------------------------------|----------------------------------|
----------------------------------|----------------------------------|
----------------------------------|----------------------------------|
----------------------------------|----------------------------------|
--0-----0-----0---3-----3-----3---|--1-----1-----1---6-------5-6-5-3-|
--0-0-0-0-0-0-0-0-3-3-3-3-3-3-3-3-|--1-1-1-1-1-1-1-1-6-6-6-6-5-6-5-3-|


----------------------------------|---------------------------------|
----------------------------------|---------------------------------|
----------------------------------|---------------------------------|
----------------------------------|---------------------------------|
--0-----0-----0---3-----3-----3---|--1-----1-----1---6----5----3----|
--0-0-0-0-0-0-0-0-3-3-3-3-3-3-3-3-|--1-1-1-1-1-1-1-1-6----5----3----|

Verse 1                    7x
|----------------------------||---------------------------------------------||
|----------------------------||---------------------------------------------||
|*--------------------------*||*-------------------------------------------*||
|*--------------------------*||*-------------------------------------------*||
|----------------------------||---------------------3-----------------------||
|---0--0--0--0--3--3--3--3---||---3-0-0-3-0-0-3-0-0-3--3-0-0-3-0-0-3-6-5-3--||

Verse 2                   7x                                             3x
----------------------------||---------------------------------------------||
----------------------------||---------------------------------------------||
*--------------------------*||*-------------------------------------------*||
*--------------------------*||*-------------------------------------------*||
----------------------------||---------------------3-----------------------||
---0--0--0--0--3--3--3--3---||---3-0-0-3-0-0-3-0-0-3--3-0-0-3-0-0-3-6-5-3--||

My Lack of....
-----------------------------------|-----------------------------------||
-----------------------------------|-----------------------------------||
*----------------------------------|----------------------------------*||
*----------------------------------|----------------------------------*||
---0-----0-----0---3-----3-----3---|--1-----1-----1---6-------5-6-5-3--||
---0-0-0-0-0-0-0-0-3-3-3-3-3-3-3-3-|--1-1-1-1-1-1-1-1-6-6-6-6-5-6-5-3--||

Double Time    I am the Hopeless....
----------------------------------|----------------------------------|
----------------------------------|----------------------------------|
----------------------------------|----------------------------------|
----------------------------------|----------------------------------|
--0-----0-----0---3-----3-----3---|--1-----1-----1---6-------5-6-5-3-|
--0-0-0-0-0-0-0-0-3-3-3-3-3-3-3-3-|--1-1-1-1-1-1-1-1-6-6-6-6-5-6-5-3-|


----------------------------------|--------------------------------|
----------------------------------|--------------------------------|
----------------------------------|--------------------------------|
----------------------------------|--------------------------------|
--0-----0-----0---3-----3-----3---|--1-----1-----1-------3------3--|
--0-0-0-0-0-0-0-0-3-3-3-3-3-3-3-3-|--1-1-1-1-1-1-1-1-0-0-3--0-0-3--|


----------------------------------|----------------------------------|
----------------------------------|----------------------------------|
----------------------------------|----------------------------------|
----------------------------------|----------------------------------|
--0-----0-----0---3-----3-----3---|--1-----1-----1---6-------5-6-5-3-|
--0-0-0-0-0-0-0-0-3-3-3-3-3-3-3-3-|--1-1-1-1-1-1-1-1-6-6-6-6-5-6-5-3-|


----------------------------------|---------------------------------||
----------------------------------|---------------------------------||
----------------------------------|---------------------------------||
----------------------------------|---------------------------------||
--0-----0-----0---3-----3-----3---|--1-----1-----1---6----5----3----||
--0-0-0-0-0-0-0-0-3-3-3-3-3-3-3-3-|--1-1-1-1-1-1-1-1-6----5----3----||


Overkill albums
2003 Kill Box 13
1999 Necroshine
1997 From the Underground and Below
1996 The Killing Kind
1994 W.F.O.
1993 I Hear Black
1991 Horrorscope
1989 The Years of Decay
1988 Under the Influence
1987 Taking Over
1985 Feel the Fire
From the Underground and Below tabs
01It Lives tabbass tab
04Genocya tabbass tab
05Half Past Dead tabbass tab
07I'm Alright tabbass tab

 

1