Search tabs:
Browse artists: 0-9 | A | B | C | D | E | F | G | H | I | J | K | L | M | N | O | P | Q | R | S | T | U | V | W | X | Y | Z
/ Overkill / From the Underground and Below (1997) / It Lives guitar tab

It Lives
Overkill
Guitar
From the Underground and Below

                                                     3x                              3x
D||-------------------------|------------------------||------------------------------||
A||-------------------------|------------------------||------------------------------||
F||*------------------------|------------------x----*||*----------------------------*||
C||*--9----9--9--9----9--9--|--9----9--9--9----x----*||*----------------------------*||
G||---7----7--7--7----7--7--|--7----7--7--7----x-----||---2-2-2-2-2----2-2-2-2-2-----||
D||---0----0--0--0----0--0--|--0----0--0--0----------||---0-0-0-0-0----0-0-0-0-0-----||



--------------------------------||----------------------------||----------------------|
--------------------------------||----------------------------||----------------------|
*------------------------------*||*--------------------------*||----------------------|
*------------------------------*||*--------------------------*||----------------------|
---2-2-2-2-2/-3--2-2-2-2-2/-3---||---2--2--2/-3--2--2--2/-3---||--2----2----2----2----|
---0-0-0-0-0h-1--0-0-0-0-0h-1---||---0--0--0h-1--0--0--0h-1---||--0----0----0----0----|



--------------------------------|----------------------|------------------------------|
--------------------------------|----------------------|------------------------------|
--------------------------------|----------------------|------------------------------|
--------------------------------|----------------------|------------------------------|
--5h-7p-5--------5h-7p-5--------|--2----2----2----2----|--2--2----------2--2----------|
-----------7--5-----------7--5--|--0----0----0----0----|--0--0--0-0-0-0-0--0--0-0-0-0-|



----------------------|--------------------------------|----------------------|
----------------------|--------------------------------|----------------------|
----------------------|--------------------------------|----------------------|
----------------------|--------------------------------|----------------------|
--2----2----2----2----|--5h-7p-5--------5h-7p-5--------|--2----2----2----2----|
--0----0----0----0----|-----------7--5-----------7--5--|--0----0----0----0----|



--------------------------------|--------------------------------|-------------------|
--------------------------------|--------------------------------|-------------------|
--------------------------------|--------------------------------|-------------------|
--------------------------------|--------------------------------|--2----------------|
--------------------------------|--------------------------------|--2----------------|
--0--0--0--0--0--0--0--0--0--0--|--0--0--0--0--0--0--0--0--0--0--|--0----------------|


                                7x                                   3x
|-------------------------------||-----------------------------------||
|-------------------------------||-----------------------------------||
|*-----------------------------*||*---------------------------------*||
|*-----------------------------*||*---------------------------------*||
|---2--------------2/-3--2/-3---||-------------------5----6----7-----||
|---0--0-0-0-0--0--0h-1--0h-1---||---1-0-0-0-1-0-0-0-3----4----5-----||


Overkill albums
2003 Kill Box 13
1999 Necroshine
1997 From the Underground and Below
1996 The Killing Kind
1994 W.F.O.
1993 I Hear Black
1991 Horrorscope
1989 The Years of Decay
1988 Under the Influence
1987 Taking Over
1985 Feel the Fire
From the Underground and Below tabs
01It Lives tabbass tab
04Genocya tabbass tab
05Half Past Dead tabbass tab
07I'm Alright tabbass tab

 

1