Search tabs:
Browse artists: 0-9 | A | B | C | D | E | F | G | H | I | J | K | L | M | N | O | P | Q | R | S | T | U | V | W | X | Y | Z
/ Overkill / Horrorscope (2000) / Bare Bones guitar tab

OVERKILL - BARE BONES
(Horrorscope, 1991)

Key
= after note = vibrato
^ after note = heavy vibrato
\\ = slide down
/ = slide up
+ = tap
h = hammer
p = pull
n = natural harmonic
s = pinching harmonic (squeal)
* = tremolo pick
t = trill
b = bend
|-3-| = triplet

n number above the tab = play the first part then the first finishing part
			 play the first part a second time and then play the second finishing part
			 etc.

Riff 1

E ------------------------------------
B ------------------------------------
G ----------------9--3----------------
D -2--------------9--3----------------
A -2--------------7--1----------------
E -0----------------------------------

Riff 1A

E -------------------------------------
B -------------------------------------
G -------------------8--------5--------
D -2--------5--------8--------5--------
A -2--------5--------6--------3--------
E -0--------3--------------------------

Riff 1B

E -----------------------------------------------------------------
B -----------------------------------------------------------------
G -----------------------------------------------------------------
D -2-2-2-2-2-2-2-2-2-2-2-2-2-2-2-2-2-2-2-2-2-2-2-2-2-2-2-2-2-2-2-2-
A -2-2-2-2-2-2-2-2-2-2-2-2-2-2-2-2-2-2-2-2-2-2-2-2-2-2-2-2-2-2-2-2-
E -0-0-0-0-0-0-0-0-0-0-0-0-0-0-0-0-0-0-0-0-0-0-0-0-0-0-0-0-0-0-0-0-

Riff 2

E ----------------------------------------------------------------------------------------------------------------
B ----------------------------------------------------------------------------------------------------------------
G ------------------------------------------------3--4--5-----------------------------------------------5--4--3---
D ----------5--5-----------5--5-----------5--5----3--4--5-----------5--5----------5--5----------5--5----5--4--3---
A ----------5--5-----------5--5-----------5--5----1--2--3-----------5--5----------5--5----------5--5----3--2--1---
E -00-0-0-0-3--3--00-0-0-0-3--3--00-0-0-0-3--3--0-----------0-0-0-0-3--3--0-0-0-0-3--3--0-0-0-0-3--3--0-----------

Riff 2A

E ----------------------------------------------------------------------------
B ----------------------------------------------------------------------------
G ---------------------------3--4--5--------------------------------5--4--3---
D -2-------------------------3--4--5---2--------------2-2-2---------5--4--3---
A -2-------------------------1--2--3---2--------------2-2-2---------3--2--1---
E -0-----------------------------------0--------------0-0-0-------------------

Riff 3

E -------------------------------------------------------------------
B -------------------------------------------------------------------
G --------------------------------------------------------------4--5-
D ------------------------------8--8----------------------------4--5-
A ------------------------------8--8----------------------------2--3-
E -53-0-0-0-53-0-0-0-53-0-0-0-0-6--6-53-0-0-0-53-0-0-0-53-0-0-0------

Riff 3A

E -----------------------------------------------------------------------------------------------------------------------
B -----------------------------------------------------------------------------------------------------------------------
G ---------3--------------3--3-3---------3--------3---4---5-----------3--------------3--3-3---------3--------5---4---3---
D ---------3--------------3--3-3---------3--------3---4---5-----------3--------------3--3-3---------3--------5---4---3---
A ---------1--------------1--1-1---------1--------1---2---3-----------1--------------1--1-1---------1--------3---2---1---
E -0-3-2-0----0-0-0-3-2-0--------0-3-2-0----0-0-0---0---0-----0-3-2-0----0-0-0-3-2-0--------0-3-2-0----0-0-0---0---0-----

Riff 3B

E -----------------------------------------------------------------------------------------------------------------------
B -----------------------------------------------------------------------------------------------------------------------
G ---------3--------------3--3-3---------3--------3---4---5-----------3--------------3--3-3---------3--------5---4---3---
D ---------3--------------3--3-3---------3--------3---4---5-----------3--------------3--3-3---------3--------5---4---3---
A ---------1--------------1--1-1---------1--------1---2---3-----------1--------------1--1-1---------1--------3---2---1---
E -0-0-0-0----0-0-0-0-0-0--------0-0-0-0----0-0-0---0---0-----0-0-0-0----0-0-0-0-0-0--------0-0-0-0----0-0-0---0---0-----

Riff 4

E -------------------------------------------------
B -------------------------------------------------
G -------------------------------------------------
D -2---9---8---9------------2---9---8---9---8-8-5--
A -2---9---8---9------------2---9---8---9---8-8-5--
E -0---7---6---7---5h6-5-3--0---7---6---7---6-6-3--

Riff 5

E ------------------------------------------------------------------------------------------------------------
B ------------------------------------------------------------------------------------------------------------
G ------------------------------------------------------------------------------------------------------------
D ---------9----8--9-------------------9----8--9---------------------9----8--9-------------------9----8--9----
A ---------9----8--9-------------------9----8--8---------------------9----8--9-------------------9----8--9----
E -0-0-0-0-7--0-6--7---0-0-0-0-0-0-0-0-7--0-6--7--0-5h6-5-3--0-0-0-0-7--0-6--7---0-0-0-0-0-0-0-0-7--0-6--7--0-

  1		      2
E ------------------- --------------------------------------------
B ------------------- --------------------------------------------
G ------------------- --------------------------------------------
D ------------------- --------------------------------------------
A ------------------- --------------------------------------------
E -5h6-5-3--5h6-5-3-- -5h6-5-3--5h6-5-3--5h6-5-3-5h6-5-3-5h6-5-3--

Fill 1

E -----------------
B -----------------
G -----------------
D -2---9---8---9---
A -2---9---8---9---
E -0---7---6---7---

Fill 2

E ---------------------
B ---------------------
G ---------4-----3-----
D ---------4-----3---3-
A ---------2-----1---3-
E -0-0-0-0---0-0---0-1-

Order

Riff 1 x 2
Riff 1A x 2
Riff 1B x 2
Riff 2/2A x 1
Riff 2 x 1
Riff 3 x 4
Riff 3A x 2
Riff 4 x 2
Riff 3 x 4
Riff 3A x 2
Riff 4 x 2
Riff 5 x 1
Solo over Riff 3B x 2
Solo over Riff 1 x 2
Solo over Riff 1A x 2
Solo over Riff 1 X 2
Fill 1 x 1
Riff 3 x 4
Riff 3A x 2
Riff 4 x 2
Fill 2 x 1

Tabbed by Radiohater 2003


Overkill albums
2003 Kill Box 13
1999 Necroshine
1997 From the Underground and Below
1996 The Killing Kind
1994 W.F.O.
1993 I Hear Black
1991 Horrorscope
1989 The Years of Decay
1988 Under the Influence
1987 Taking Over
1985 Feel the Fire
Horrorscope tabs
01Rescue tabbass tab
02Promise tabbass tab
03On The Roof Again tabbass tab
04Sunset Strip Bitch tabbass tab
05Here's To The Night tabbass tab
06Amphetamines tabbass tab
07Enemy tabbass tab
08Nocturnal tabbass tab
09Jet Pack tabbass tab
10Nightmare tabbass tab
11Bang tabbass tab
12Girl Eyes tabbass tab

 

1