Search tabs:
Browse artists: 0-9 | A | B | C | D | E | F | G | H | I | J | K | L | M | N | O | P | Q | R | S | T | U | V | W | X | Y | Z
/ Overkill / Horrorscope (2000) / Blood Money guitar tab

OVERKILL - BLOOD MONEY
(Horrorscope, 1991)

Key
= after note = vibrato
^ after note = heavy vibrato
\\ = slide down
/ = slide up
+ = tap
h = hammer
p = pull
n = natural harmonic
s = pinching harmonic (squeal)
* = tremolo pick
t = trill
b = bend
|-3-| = triplet

n number above the tab = play the first part then the first finishing part
			 play the first part a second time and then play the second finishing part
			 etc.

Riff 1

E -------------------------------------------------------------
B -------------------------------------------------------------
G -------------------------------------------------------------
D -------------------------------------------------------------
A ---------------------------------------------------------2-3-
E -0--0-0-3-2-0-0-0--0-0-3-2-0-0-0--0-0-3-2-0-0-0--0-0-2-3-----

Riff 1A

E ---------------------------------------------------------
B ---------------------------------------------------------
G ---------------------------------------------------------
D ----------------------------------------------7---7---7--
A ----------------------------------------------7---7---7--
E -0--0-0-3-2-0-0-0--0-0-3-2-0-0-0--0-0-3-2-0-0------------

Riff 1B

E -------------------------------------------------------------------------------------------------------------------------
B -------------------------------------------------------------------------------------------------------------------------
G ----------------------------------------------------7----7-7-------------------------------9--------------9--------------
D ----------------------------------------------9-7---7----7-7-------------------------------9--------------9--------------
A ----------------------------------------------7-----5----5-5-------------------------------7--------------7--------------
E -0--0-0-3-2-0-0-0--0-0-3-2-0-0-0--0-0-3-2-0-0-----0----0-----0--0-0-3-2-0-0-0--0-0-3-2-0-0----0-0-0-0-0-0----0-0-0-0-0-0-

Riff 1C

E -----------------------------------------------------------------------------------------------------------------------
B -----------------------------------------------------------------------------------------------------------------------
G -----------------------------------------------------------------------------------------------------------------------
D ---------------------------------------------------------------------------------------------------------------------2-
A ---------------------------------------------------------2-3---------------------------------------------------------2-
E -0--0-0-3-2-0-0-0--0-0-3-2-0-0-0--0-0-3-2-0-0-0--0-0-2-3-----0--0-0-3-2-0-0-0--0-0-3-2-0-0-0--0-0-3-2-0-0-0--0-0-2-3---

Riff 2

E ------------------------------------------------------------------------
B ------------------------------------------------------------------------
G ------------------------------------------------------------------------
D -2----------------5----------------4----------------7--------7---7---7--
A -2----------------5----------------4----------------7--------7---7---7--
E -0----------------3----------------2----------------5--------5---5---5--

Riff 2A

E ------------------------------------------------------
B ------------------------------------------------------
G ------------------------------------------------------
D -2----------------5----------------4----------------7-
A -2----------------5----------------4----------------7-
E -0----------------3----------------2----------------5-

Riff 3

E ------------------------------------------------------------------------------------------------------------------------
B ------------------------------------------------------------------------------------------------------------------------
G ---------------------------------------------------------------------------------------------------------9--------------
D -9---7-------7-------7--7--9---7-------7-------7--7--9---7-------7-------7--7--9---7-------7-------7--7--9--------------
A -7---7---------9-7-7-7--7--7---7---------9-7-7-7--7--7---7---------9-7-7-7--7--7---7---------9-7-7-7--7--7--------------
E ---------0-0-----------------------0-0-----------------------0-0-----------------------0-0------------------0-0-0-0-0-0-

E ----------------
B ----------------
G -9--------------
D -9--------------
A -7--------------
E ----0-0-0-0-0-0-

Riff 3A

E -----------------------------------------------------------------------------------------------------------------
B -----------------------------------------------------------------------------------------------------------------
G -9---7---------------7--7--9---7---------------5--5--7---5---------------5--5--7---5---------------5--5--7---5---
D -9---7-------9-7-----7--7--9---7-------9-7-----5--5--7---5-------7-5-----5--5--7---5-------7-5-----5--5--7---5---
A -7---7-----------7-7-7--7--7---7-----------7-7-5--5--5---5---5-5-----5-5-5--5--7---5---5-5-----5-5-5--5--5---5---
E ---------0-0-----------------------0-0---------------------------------------------------------------------------

E -------------------------------------------------------------------------------------------------
B -------------------------------------------------------------------------------------------------
G -------------------------------------------------------------------------------------------------
D -----7-5-----7--7--9---7---------------7--7--9---7---------------7--7--9---7---------------7--7--
A -5-5-----5-5-7--7--9---7-------9-7-----7--7--9---7-------9-7-----7--7--9---7-------9-7-----7--7--
E -------------7--7--7---7---7-7-----7-7-7--7--7---7---7-7-----7-7-7--7--7---7---7-7-----7-7-7--7--

  1			      2
E --------------------------- -------------------------------------------------------
B --------------------------- -------------------------------------------------------
G --------------------------- -------------------------------------------------------
D -9----9----9----9----9--9-- -----3---3-------5---5-------6---6-------7---7-------2-
A -9----9----9----9----9--9-- -----3---3-------5---5-------6---6-------7---7-------2-
E -7--7-7--7-7--7-7--7-7--7-- -0-0-1---1---0-0-3---3---0-0-4---4---0-0-5---5---0-0-0-

Riff 4

E -------------------------------------------------------------------------------------------------------
B -------------------------------------------------------------------------------------------------------
G --------------------------------------------------------------------------------------7----------------
D -2----------------5----------------4----------------7----------------2----------------7----------------
A -2----------------5----------------4----------------7----------------2----------------5----------------
E -0----------------3----------------2----------------5----------------0---------------------------------

E -----------------------------------
B -----------------------------------
G -----------------------------------
D -7----------------5----------------
A -7----------------5----------------
E -5----------------3----------------

Riff 4A

E ---------------------------------------------------------------------------------------------------------------------
B ---------------------------------------------------------------------------------------------------------------------
G ---------------------------------------------------------------------------------------------------------------------
D -2----------2----------2------5----------5----------5------4----------4----------4------7----------7----------7------
A -2----------2----------2------5----------5----------5------4----------4----------4------7----------7----------7------
E -0--0-0-0-0-0--0-0-0-0-0--0-0-3--3-3-3-3-3--3-3-3-3-3--3-3-2--2-2-2-2-2--2-2-2-2-2--2-2-5--5-5-5-5-5--5-5-5-5-5--5-5-

E ---------------------------------------------------------------------------------------------------------------------------
B ---------------------------------------------------------------------------------------------------------------------------
G ------------------------------7----------7----------7-----------------------------------9---7----------------------------7-
D -2----------2----------2------7----------7----------7------7----------7----------7--------------9----7-----------7---5---7-
A -2----------2----------2------5--5-5-5-5-5--5-5-5-5-5--5-5-7----------7----------7----------------------10-7-------------5-
E -0--0-0-0-0-0--0-0-0-0-0--0-0------------------------------5--5-5-5-5-5--5-5-5-5-5--5-5----------------------10----------5-

Riff 4B

E ---------------------------------------------------------------------------------------------------------------------
B ---------------------------------------------------------------------------------------------------------------------
G ---------------------------------------------------------------------------------------------------------------------
D -2----------2----------2------5----------5----------5------4----------4----------4------7----------7----------7------
A -2----------2----------2------5----------5----------5------4----------4----------4------7----------7----------7------
E -0--0-0-0-0-0--0-0-0-0-0--0-0-3--3-3-3-3-3--3-3-3-3-3--3-3-2--2-2-2-2-2--2-2-2-2-2--2-2-5--5-5-5-5-5--5-5-5-5-5--5-5-

E -----------------------------------------------------------------------------------------------------------------------
B -----------------------------------------------------------------------------------------------------------------------
G ------------------------------7----------7----------7-----------------------------------9---7--------------------------
D -2----------2----------2------7----------7----------7------7----------7----------7--------------9----7-----------7---5-
A -2----------2----------2------5--5-5-5-5-5--5-5-5-5-5--5-5-7----------7----------7----------------------10-7-----------
E -0--0-0-0-0-0--0-0-0-0-0--0-0------------------------------5--5-5-5-5-5--5-5-5-5-5--5-5----------------------10--------

Riff 4C

E ---------------------------------------------------------------------------------------------------------------------
B ---------------------------------------------------------------------------------------------------------------------
G ---------------------------------------------------------------------------------------------------------------------
D -2----------2----------2------5----------5----------5------4----------4----------4------7----------7----------7------
A -2----------2----------2------5----------5----------5------4----------4----------4------7----------7----------7------
E -0--0-0-0-0-0--0-0-0-0-0--0-0-3--3-3-3-3-3--3-3-3-3-3--3-3-2--2-2-2-2-2--2-2-2-2-2--2-2-5--5-5-5-5-5--5-5-5-5-5--5-5-

E ---------------------------------------------------------------------------------------------------------------
B ---------------------------------------------------------------------------------------------------------------
G ------------------------------7----------7----------7-----------------------------------9---7------------------
D -2----------2----------2------7----------7----------7------7----------7----------7--------------9----7---------
A -2----------2----------2------5--5-5-5-5-5--5-5-5-5-5--5-5-7----------7----------7----------------------10--7--
E -0--0-0-0-0-0--0-0-0-0-0--0-0------------------------------5--5-5-5-5-5--5-5-5-5-5--5-5------------------------

E ---------------------------------------------------------------------------------------------------------
B ---------------------------------------------------------------------------------------------------------
G -9---7------------------11---9--------------------11---9--------------------13---11----------------------
D ---------9----7------------------11---9--------------------11---9---------------------13----11-----------
A -----------------10--7---------------------12--9---------------------12--9-----------------------14--11--
E ---------------------------------------------------------------------------------------------------------

E -------------------------------------------------------------------------
B -------------------------------------------------------------------------
G -13---11-----------------------------------------------------------------
D -----------13----11----------------------------------------------------2-
A ---------------------14--11--7-7--6-6--5-5--4-4--3-3---------------2-3-2-
E -----------------------------------------------------3--0--0-0-2-3-----0-

Riff 5

E ---------------------------------------------------------------------------------------------------------
B ---------------------------------------------------------------------------------------------------------
G -----------------------------------------------------7---------------------------------------------------
D -2---5---7----8--7--5--------------------------------7---9---7----5--7--8--------------------------------
A -2---5---7----8--7--5--------------------------------5---9---7----5--7--8--------------------------------
E -0---3---5----6--5--3--0--0-0-3-2-0-0-0--0-0-3-2-0-0-----7---5----3--5--6--0--0-0-3-2-0-0-0--0-0-3-2-0-0-

E ---------------------------------------------------------------------------------------------------------
B ---------------------------------------------------------------------------------------------------------
G -----------------------------------------------------7---------------------9--------------7--------------
D -2---5---7----8--7--5--------------------------------7---9---7----5--7--8--9--------------7--------------
A -2---5---7----8--7--5--------------------------------5---9---7----5--7--8--7--------------5--------------
E -0---3---5----6--5--3--0--0-0-3-2-0-0-0--0-0-3-2-0-0-----7---5----3--5--6-----0-0-0-0-0-0----0-0-0-0-0-0-

Order

Riff 1 x 8
Riff 1A x 2
Riff 1B x 1
Riff 2 x 2
Riff 1B x 1
Riff 2 x 1
Riff 2A x 1
Solo over Riff 1A x 2
Riff 1C x 2
Riff 3 x 2
Riff 4 x 2
Riff 4A x 1
Solo over Riff 1C x 2
Solo over Riff 5 x 2
Riff 4 x 1
Riff 4B x 1
Riff 1 x 4
Riff 3A x 1
Riff 4 x 1
Riff 4C x 1

Tabbed by Radiohater 2003


Overkill albums
2003 Kill Box 13
1999 Necroshine
1997 From the Underground and Below
1996 The Killing Kind
1994 W.F.O.
1993 I Hear Black
1991 Horrorscope
1989 The Years of Decay
1988 Under the Influence
1987 Taking Over
1985 Feel the Fire
Horrorscope tabs
01Rescue tabbass tab
02Promise tabbass tab
03On The Roof Again tabbass tab
04Sunset Strip Bitch tabbass tab
05Here's To The Night tabbass tab
06Amphetamines tabbass tab
07Enemy tabbass tab
08Nocturnal tabbass tab
09Jet Pack tabbass tab
10Nightmare tabbass tab
11Bang tabbass tab
12Girl Eyes tabbass tab

 

1