Search tabs:
Browse artists: 0-9 | A | B | C | D | E | F | G | H | I | J | K | L | M | N | O | P | Q | R | S | T | U | V | W | X | Y | Z
/ Overkill / Horrorscope (2000) / Coma guitar tab

OVERKILL - COMA
(Horrorscope, 1991)

Key
= after note = vibrato
^ after note = heavy vibrato
\\ = slide down
/ = slide up
+ = tap
h = hammer
p = pull
n = natural harmonic
s = pinching harmonic (squeal)
* = tremolo pick
t = trill
b = bend
|-3-| = triplet

n number above the tab = play the first part then the first finishing part
			 play the first part a second time and then play the second finishing part
			 etc.

Tune Down 1/2 Step

Riff 1

Eb ---------------------------------------------------------
Bb ------5----5--------4----4--------3----3--------2----2---
Gb ----2----2---2----2----2---2----2----2---2----2----2---2-
Db ---------------------------------------------------------
Ab -0-------------0-------------0-------------0-------------
Eb ---------------------------------------------------------

Riff 1A

Eb ------------------------------------------------------------------------------------------------------------------
Bb ------8----8------8-------8-----8-------8-----8-------8--------8----8--------8----8------8-------8-----8-------8--
Gb ----9----9----------9---9---------9---9---------9---9---9----9----9---9----9----9---9------9---9---------9---9----
Db ---------------8------8--------------------8------8-----------------------------------8------8------8------8------
Ab -----------------------------0------0-----------------------------------------------------------------------------
Eb -0--------------------------------------------------------0-------------0-----------------------------------------

Eb -----------------------------------------------------------------------------------------------------------------
Bb ----8-------8-----8-------8-------8-----8-----8------8-----8-----8-----8-----8-------------------8-------8-------
Gb ------9---9---------9---9-------9-----9-----9------9-----9-----9-----9-----9------------------9-------9-----9----
Db ------------------------------8-----------8------------8-----------8-----------9-7-------------------------------
Ab -0------0------0------0-------------0-----------0------------0-----------0----------10-9-7-----------------------
Eb -----------------------------------------------------------------------------------------0---------------------0-

Riff 2

Eb ----------------------------------------
Bb ----------------------------------------
Gb ----------------------------------------
Db -7-------7-------7-------7-------5--7-8-
Ab -7-------7-------7-------7-------5--7-8-
Eb -5-55-55-5-55-55-5-55-55-5-55-55--------

Riff 2A

Eb ---------------------------------------
Bb ---------------------------------------
Gb ---------------------------------------
Db -7-------7-------7-------7-------8--8--
Ab -7-------7-------7-------7-------8--8--
Eb -5-55-55-5-55-55-5-55-55-5-55-55-6--6--

Riff 2B

Eb -------------------------------------------------------------------------------------------
Bb -------------------------------------------------------------------------------------------
Gb -------------------------------------------------------------------------------------------
Db -7-------7-------7----8-------8-------8----10-------10-------10----11-------11-------11----
Ab -7-------7-------7----8-------8-------8----10-------10-------10----11-------11-------11----
Eb -5-55-55-5-55-55-5-55-6-66-66-6-66-66-6-66-8 -88-88-8 -88-88-8 -88-9 -99-99-9 -99-99-9 -99-

Eb ------------------------------------------------------------------------------------------------
Bb ------------------------------------------------------------------------------------------------
Gb ------------------------------------------------------------------------------------------------
Db -7-------7-------7----8-------8-------8----10-------10-------10----11-------11-------11----7--8-
Ab -7-------7-------7----8-------8-------8----10-------10-------10----11-------11-------11----7--8-
Eb -5-55-55-5-55-55-5-55-6-66-66-6-66-66-6-66-8 -88-88-8 -88-88-8 -88-9 -99-99-9 -99-99-9 -99-5--6-

Riff 3

Eb ---------------------------------------------------------------------------------------
Bb ---------------------------------------------------------------------------------------
Gb -------------------------------------15--14--------------------------------------------
Db -------------------------------------15--14--------------------------------------7--8--
Ab -------------------------------------13--12--------------------------------------7--8--
Eb -00-00-00-00-00-00-00-00-00-00-00-00---------00-00-00-00-00-00-00-00-00-00-00-00-5--6--

Riff 3A

Eb ------------------------------------------------------------------
Bb ------------------------------------------------------------------
Gb -------------------------------------------------------14---14-15-
Db -2-----2-----2-----2-----8--8--2-----2-----2-----2-----14---14-15-
Ab -2-----2-----2-----2-----8--8--2-----2-----2-----2-----12---12-13-
Eb -0-0-0-0-0-0-0-0-0-0-0-0-6--6--0-0-0-0-0-0-0-0-0-0-0-0----0-------

Riff 3B

Eb -------------------------------------------------------------
Bb -------------------------------------------------------------
Gb -------------------------------------------------------------
Db -2-----2-----2-----2-----8--8--2-----2-----2-----2-----7--8--
Ab -2-----2-----2-----2-----8--8--2-----2-----2-----2-----7--8--
Eb -0-0-0-0-0-0-0-0-0-0-0-0-6--6--0-0-0-0-0-0-0-0-0-0-0-0-5--6--

Riff 4

				     1, 3			       2
Eb --------------------------------- --------------------------------- ---------------------------------
Bb --------------------------------- --------------------------------- ---------------------------------
Gb --------------------------------- --------------------------------- ---------------------------------
Db ---4-4-4-4-------5-4-4-4-4-4-4-4- ---4-4-4-4----------------------- ---4-4-4-4-4-4-2-3-2-0---2-0-----
Ab ---4-4-4-4-------5-4-4-4-4-4-4-4- ---4-4-4-4-------3-2-0---2-0----- ---4-4-4-4-4-4---------3-----2-3-
Eb -0-2-2-2-2-3-2-0-3-2-2-2-2-2-2-2- -0-2-2-2-2-3-2-0-------3-----2-3- -0-2-2-2-2-2-2-------------------

   4
Eb ----------------------------------
Bb ----------------------------------
Gb ----------------------------------
Db ---------------3--2-0---2-1-0-----
Ab ----------------------3-------3-2-
Eb -0-2-2-2-2-2-2--------------------

Riff 4A

			    1, 3			
Eb -----------0------------ --------------------------------- ---------------------------------
Bb -------------0---------- --------------------------------- ---------------------------------
Gb ---------------3-------- --------------------------------- ---------------------------------
Db ---4-4-4-4-------------- ---4-4-4-4----------------------- ---4-4-4-4-4-4-2-3-2-0---2-0-----
Ab ---4-4-4-4-------------- ---4-4-4-4-------3-2-0---2-0----- ---4-4-4-4-4-4---------3-----2-3-
Eb -0-2-2-2-2-------------- -0-2-2-2-2-3-2-0-------3-----2-3- -0-2-2-2-2-2-2-------------------

   4
Eb ----------------------------------
Bb ----------------------------------
Gb ----------------------------------
Db ---4-4-4-4-4-4-3--2-0---2-1-0-----
Ab ---4-4-4-4-4-4--------3-------3-2-
Eb -0-2-2-2-2-2-2--------------------

Riff 4B

Eb ----------------------------------------------------------------
Bb ----------------------------------------------------------------
Gb ----------------------------------------------------------------
Db ---4-4-4-4-------5-4-4-4-4-4-4-4---4-4-4-4-------5-4-4-4-4-4-5--
Ab ---4-4-4-4-------5-4-4-4-4-4-4-4---4-4-4-4-------5-4-4-4-4-4-5--
Eb -0-2-2-2-2-3-2-0-3-2-2-2-2-2-2-2-0-2-2-2-2-3-2-0-3-2-2-2-2-2-3--

Riff 5

Eb ------------------
Bb ------------------
Gb ------------------
Db -33-2-0---2-0-----
Ab --------3-----3-2-
Eb ------------------

Riff 5A

Eb -----------------
Bb -----------------
Gb -2-0-------------
Db -----3-2-5-3-2-0-
Ab -----------------
Eb -----------------

Riff 5B

Eb -------------------------------------------------------------------
Bb -------------------------------------------------------------------
Gb -------------------------------------------------------------------
Db -3-2-0---2-0-----3-2-0---2-0-----3-2-0---2-0---------------------2-
Ab -------3-----3-2-------3-----3-2-------3-----3-2-3-2-0---2-0-----2-
Eb -------------------------------------------------------3-----3-2-0-

Riff 5C

Eb ---------------------------------------------------------------------
Bb ---------------------------------------------------------------------
Gb -3-2-0---2-0-----3-2-0---2-0-------5-5-5-5-4-4-4-4-5-5-5-5-4-4-------
Db -------3-----3-2-------3-----3-2-0-3-3-3-3-2-2-2-2-5-5-5-5-4-4-5-4-2-
Ab ---------------------------------------------------3-3-3-3-2-2-5-4-2-
Eb ---------------------------------------------------------------3-2-0-

Riff 6

Eb ----------------------------------------------------------------------------------------------------------------
Bb ----------------------------------------------------------------------------------------------------------------
Gb ----------------------------------------------------------------------------------------------------------------
Db -2--------------8/9-----8----------------2--------------8/9-----8--------8-8-8-8-8-8-8-8-2--------------8/9-----
Ab -2--------------8/9-----8----------------2--------------8/9-----8--------8-8-8-8-8-8-8-8-2--------------8/9-----
Eb -0----------0-0-6/7-0-0-6----------------0----------0-0-6/7-0-0-6--------6-6-6-6-6-6-6-6-0----------0-0-6/7-0-0-

Eb -------------------------------------------------------------
Bb -------------------------------------------------------------
Gb -------------------------------------------------------------
Db -8--------2--2--2--2--2--------------9------8----------------
Ab -8--------2--2--2--2--2--------------9------8----------------
Eb -6--------0--0--0--0--0----------0-0-7--0-0-6----------------

Riff 7

Eb -------------------------------------------
Bb -------------------------------------------
Gb -9-------9-------9-------9-------7----9-10-
Db -9-------9-------9-------9-------7----9-10-
Ab -7-------7-------7-------7-------5----7-8 -
Eb ---00-00---00-00---00-00---00-00---00------

Riff 7A

Eb ------------------------------------------------------------------------------------
Bb ------------------------------------------------------------------------------------
Gb -9-------9-------9---7-------7-------7---10-------10-------10-----------7-------8---
Db -9-------9-------9---7-------7-------7---10-------10-------10---9-------7-------8---
Ab -7-------7-------7---5-------5-------5---8 -------8 -------8 ---9-------5-------6---
Eb ---00-00---00-00---0---00-00---00-00---0----00-00----00-00----0-7-00-00---00-00---0-

Eb ------------------------------------------------------------------------------------------------------------
Bb ------------------------------------------------------------------------------------------------------------
Gb -9-------9-------9---10-------10-------10---12-------12-------12---13-------13-------13---------------------
Db -9-------9-------9---10-------10-------10---12-------12-------12---13-------13-------13---7--------------3--
Ab -7-------7-------7---8 -------8 -------8 ---10-------10-------10---11-------11-------11---7--------------3--
Eb ---00-00---00-00---0----00-00----00-00----0----00-00----00-00----0----00-00----00-00----0-5--------------1--

Order

Riff 1 x 2
Riff 1A x 1
Riff 1 x 2
Riff 2 x 4
Riff 3 x 2
Riff 3A x 1
Riff 3B x 1
Riff 3A x 2
Riff 4/4A x 1
Riff 5 x 1
Riff 5/5A x 1
Riff 2 x 3
Riff 2A x 1
Riff 3A x 1
Riff 3B x 1
Riff 3A x 2
Riff 4/4A x 1
Riff 5 x 1
Riff 5A x 1
Riff 6 x 1
Solo over Riff 7 x 4
Solo over Riff 4B x 2
Solo over Riff 7A x 1
Riff 3A x 1
Riff 3B x 1
Riff 3A x 2
Riff 4/4A x 1
Riff 5 x 1
Riff 5/5A x 1
Riff 2 x 4
Riff 2B x 1
Riff 5B/5C x 1

Tabbed by Radiohater 2003


Overkill albums
2003 Kill Box 13
1999 Necroshine
1997 From the Underground and Below
1996 The Killing Kind
1994 W.F.O.
1993 I Hear Black
1991 Horrorscope
1989 The Years of Decay
1988 Under the Influence
1987 Taking Over
1985 Feel the Fire
Horrorscope tabs
01Rescue tabbass tab
02Promise tabbass tab
03On The Roof Again tabbass tab
04Sunset Strip Bitch tabbass tab
05Here's To The Night tabbass tab
06Amphetamines tabbass tab
07Enemy tabbass tab
08Nocturnal tabbass tab
09Jet Pack tabbass tab
10Nightmare tabbass tab
11Bang tabbass tab
12Girl Eyes tabbass tab

 

1