Search tabs:
Browse artists: 0-9 | A | B | C | D | E | F | G | H | I | J | K | L | M | N | O | P | Q | R | S | T | U | V | W | X | Y | Z
/ Overkill / Horrorscope (2000) / Live Young, Die Free guitar tab

OVERKILL - LIVE YOUNG, DIE FREE
(Horrorscope, 1991)

Key
= after note = vibrato
^ after note = heavy vibrato
\\ = slide down
/ = slide up
+ = tap
h = hammer
p = pull
n = natural harmonic
s = pinching harmonic (squeal)
* = tremolo pick
t = trill
b = bend
|-3-| = triplet

n number above the tab = play the first part then the first finishing part
			 play the first part a second time and then play the second finishing part
			 etc.

Intro

E --------------------------------------------------------------------------
B --------------------------------------------------------------------------
G --------------------------------------------------------------------------
D ------------------------------------------------------------------------7-
A ------------------2------------------7------------------2-----3-----4---7-
E -00-0-00-0-00-0-1---00-0-00-0-00-0-6---00-0-00-0-00-0-1---0-2---0-3---0-5-

E ----------------------------------------------------------------------------------
B ----------------------------------------------------------------------------------
G ----------------------------------------------------------------------------------
D ----------------------------------------------------------------------------------
A ------------------2------------------7------------------2-----3-----4-----5-----6-
E -00-0-00-0-00-0-1---00-0-00-0-00-0-6---00-0-00-0-00-0-1---0-2---0-3---0-4---0-5---

E ---------------------------------------
B ---------------------------------------
G ---------------------------------------
D ---------------------------------------
A -----7-----8-----9-----10-9-10-11-12\\--
E -0-6---0-7---0-8---0-9-----------------

Riff 1

E --------------------------------------------------------------------
B --------------------------------------------------------------------
G --------------------------------------------------------------------
D ----------------------------------2------------------------------7--
A ---------------2----------------7-2--------------2-----3-----4---7--
E -0-00-0-00-0-1---0--00-0-00-0-6---0--00-0-00-0-1---0-2---0-3---0-5--

Riff 1A

E --------------------------------------------------------------
B --------------------------------------------------------------
G --------------------------------------------------------------
D ---------------2--------------2----------------------------7--
A -------------2-2------------7-2------------2-----3-----4---7--
E -0-0-0-0-0-1---0--0-0-0-0-6---0--0-0-0-0-1---0-2---0-3---0-5--

Riff 1B

E -------------------------------------------------------------------
B -------------------------------------------------------------------
G -------------------------------------------------------------------
D -----------------2----------------2--------------------------7--7--
A ---------------2-2--------------7-2--------------2-----3-----7--7--
E -0-00-0-00-0-1---0--00-0-00-0-6---0--00-0-00-0-1---0-2---0-3-5--5--

Riff 2

E ----------------------------------------------------------------------------------------------------------------------
B ----------------------------------------------------------------------------------------------------------------------
G ----------------------------------------------------------------------------------------------------------------------
D ----------------4-5---------------8-7---------------4-5----8-7----5-2--------------4-5---------------8-7--------------
A ----------------4-5---------------8-7---------------4-5----8-7----5-2--------------4-5---------------8-7--------------
E -0-00-0-00-0-00-2-3--00-0-00-0-00-6-5--00-0-00-0-00-2-3--0-6-5--0-3-0--0-0-00-0-00-2-3--00-0-00-0-00-6-5--0-0-00-0-00-

E -------------------
B -------------------
G -------------------
D -4-5----8-7----5-2-
A -4-5----8-7----5-2-
E -2-3--0-6-5--0-3-0-

Riff 2A

E -----------------------------------------------------------------------------------------------------------------------
B -----------------------------------------------------------------------------------------------------------------------
G -----------------------------------------------------------------------------------------------------------------------
D ----------------4-5---------------8-7---------------4-5----8-7----5-2---------------4-5---------------8-7--------------
A ----------------4-5---------------8-7---------------4-5----8-7----5-2---------------4-5---------------8-7--------------
E -0-00-0-00-0-00-2-3--00-0-00-0-00-6-5--00-0-00-0-00-2-3--0-6-5--0-3-0--00-0-00-0-00-2-3--00-0-00-0-00-6-5--0-0-00-0-00-

E -----------------------------------------------------------------------------------------------------------------------
B -----------------------------------------------------------------------------------------------------------------------
G -----------------------------------------------------------------------------------------------------------------------
D -4-5----8-7----5-2---------------4-5---------------8-7---------------4-5----8-7----5-2---------------4-5---------------
A -4-5----8-7----5-2---------------4-5---------------8-7---------------4-5----8-7----5-2---------------4-5---------------
E -2-3--0-6-5--0-3-0--00-0-00-0-00-2-3--00-0-00-0-00-6-5--00-0-00-0-00-2-3--0-6-5--0-3-0--00-0-00-0-00-2-3--00-0-00-0-00-

E -----------------------------------
B -----------------------------------
G -----------------------------------
D -8-7---------------4-5----8-7----5-
A -8-7---------------4-5----8-7----5-
E -6-5--00-0-00-0-00-2-3--0-6-5--0-3-

Riff 3

E -----------------------------------------------------------------------
B -----------------------------------------------------------------------
G -----------5-4--------------5-4--------------5-4-----------------------
D -----------5-4---5----------5-4---4----------5-4---3-------------------
A -----------3-2---5----------3-2---4----------3-2---3-------------------
E -00-0-00-0-----0-3--33-3-33-----0-2--22-2-22-----0-1--1-11-1-11-1-11-1-

Riff 4

E ---------------------------------------------------------
B ---------------------------------------------------------
G -----------3-------------3-------------3---5------4------
D -2---------3---2---------3---2---------3---5------4------
A -2---------1---2---------1---2---------1---3------2------
E -0---0-0-0---0-0---0-0-0---0-0---0-0-0---0----0-0----0-0-

Riff 5A

E -----------------------------------------------------------------
B -----------------------------------------------------------------
G -----------------------------------------------------------------
D -2-2-2-2-3-3-3-3-2-2-2-2-3-3-3-3-2-2-2-2-3-3-3-3-2-2-2-2-3-3-3-3-
A -2-2-2-2-3-3-3-3-2-2-2-2-3-3-3-3-2-2-2-2-3-3-3-3-2-2-2-2-3-3-3-3-
E -0-0-0-0-1-1-1-1-0-0-0-0-1-1-1-1-0-0-0-0-1-1-1-1-0-0-0-0-1-1-1-1-

Riff 5

E --------------------------------------------------------------
B --------------------------------------------------------------
G --------------------------------------------------------------
D -2-2-2-2-3-3-3-3-2-2-2-2-3-3-3-3-2-2-2-2-3-3-3-3-2-2-2-2-3----
A -2-2-2-2-3-3-3-3-2-2-2-2-3-3-3-3-2-2-2-2-3-3-3-3-2-2-2-2-3----
E -0-0-0-0-1-1-1-1-0-0-0-0-1-1-1-1-0-0-0-0-1-1-1-1-0-0-0-0-1----

Riff 5B

E --------------------------------------------------------------
B --------------------------------------------------------------
G --------------------------------------------------------------
D ---9-8-------7-8---9-8-------7-8---9-8-------7-8---9-8---7====
A -7-----9-8-9-----7-----9-8-9-----7-----9-8-9-----7-----9------
E --------------------------------------------------------------

Riff 5C

E --------------------------------------------------------------------------------------------------
B --------------------------------------------------------------------------------------------------
G --------------------------------------------------------------------------------------------------
D -2-2-2-2-3-3-3-3-2-2-2-2-3-3-3-3-2-2-2-2-3-3-3-3-2-2-2-2-3-3-3-3--------------------------------2-
A -2-2-2-2-3-3-3-3-2-2-2-2-3-3-3-3-2-2-2-2-3-3-3-3-2-2-2-2-3-3-3-3-----3-----4-----5-----6-----7--2-
E -0-0-0-0-1-1-1-1-0-0-0-0-1-1-1-1-0-0-0-0-1-1-1-1-0-0-0-0-1-1-1-1-0-2---0-3---0-4---0-5---0-6----0-

Fill 1

E --------------------------------------------------
B --------------------------------------------------
G --------------------------------------------------
D -2------------3-3-3-3-2------------3-3-3-3--------
A -2------------3-3-3-3-2------------3-3-3-3-----2--
E -0------------1-1-1-1-0------------1-1-1-1-0-1----

Riff 6

E -----------------------------------------------------------------
B -----------------------------------------------------------------
G -----------5-----------------------------------5--------7--------
D -2---------5--------5--------4--------2--------5--------7--------
A -2---------3--------5--------4--------2--------3--------5--------
E -0------------------3--------2--------0--------------------------

Fill 2

E -------------------------------------------------------------------------------------------------------------------------
B -------------------------------------------------------------------------------------------------------------------------
G -------------------------------------------------------------------------------------------------------------------------
D -------------------------------------------------------------------------------------------------------------------------
A -------------------------------------------------------------------------------------------------------------------------
E -00-0-00-0-00-0-00-0-00-0-00-0-00-0-00-0-00-0-00-0-00-0-00-0-00-0-00-0-00-0-00-0-00-0-00-0-00-0-00-0-00-0-00-0-00-0-00-0-

Order

Intro x 1
Riff 1 x 2
Riff 1A x 4
Riff 2 x 1
Riff 3 x 2
Riff 1B x 1
Riff 1A x 4
Riff 2 x 1
Riff 3 x 2
Riff 4 x 4
Riff 5A x 1
Riff 5/5B x 4
Fill 1 x 1
Solo over Riff 2 x 1
Solo over Riff 6 x 1
Fill 2 x 1
Riff 1A x 4
Riff 3 x 2
Riff 4 x 4
Riff 5C x 1

Tabbed by Radiohater 2003


Overkill albums
2003 Kill Box 13
1999 Necroshine
1997 From the Underground and Below
1996 The Killing Kind
1994 W.F.O.
1993 I Hear Black
1991 Horrorscope
1989 The Years of Decay
1988 Under the Influence
1987 Taking Over
1985 Feel the Fire
Horrorscope tabs
01Rescue tabbass tab
02Promise tabbass tab
03On The Roof Again tabbass tab
04Sunset Strip Bitch tabbass tab
05Here's To The Night tabbass tab
06Amphetamines tabbass tab
07Enemy tabbass tab
08Nocturnal tabbass tab
09Jet Pack tabbass tab
10Nightmare tabbass tab
11Bang tabbass tab
12Girl Eyes tabbass tab

 

1