Search tabs:
Browse artists: 0-9 | A | B | C | D | E | F | G | H | I | J | K | L | M | N | O | P | Q | R | S | T | U | V | W | X | Y | Z
/ Overkill / Horrorscope (2000) / Soulitude guitar tab

OVERKILL - SOULITUDE
(Horrorscope, 1991)

Key
= after note = vibrato
^ after note = heavy vibrato
\\ = slide down
/ = slide up
+ = tap
h = hammer
p = pull
n = natural harmonic
s = pinching harmonic (squeal)
* = tremolo pick
t = trill
b = bend
|-3-| = triplet

n number above the tab = play the first part then the first finishing part
			 play the first part a second time and then play the second finishing part
			 etc.

Tune Down 1/2 Step

Riff 1

Eb ------------------------------------------------------------
Bb ------------------------------------------------------------
Gb ------5----5-----7-----4-----5------2----2-----4---4----7-5-
Db ----7----7---7-9---9-5---5-7------3----3---3-5---5----5-----
Ab -0-----------------------------0----------------------------
Eb ------------------------------------------------------------

Riff 1A

Eb -------------------------------------------------------------
Bb -------------------------------------------------------------
Gb ------5----5-----7-----4-----5------2----2-----4---4----5----
Db ----7----7---7-9---9-5---5-7------3----3---3-5---5----5------
Ab -0-----------------------------0---------------------------0-
Eb -------------------------------------------------------------

Riff 1B

Eb -----------------------------------------------------0-------
Bb -------------------------------------------------------0-----
Gb ------5----5-----7-----4-----5------2----2-----4---4-----7-5-
Db ----7----7---7-9---9-5---5-7------3----3---3-5---5-----------
Ab -0-----------------------------0-----------------------------
Eb -------------------------------------------------------------

Riff 2

Eb -----------------------------------------------------------------
Bb -----------------------------------------------------------------
Gb -7------7--10------10--5------5--4------4--5------5--10---9---8--
Db -7------7--10------10--5------5--4------4--5------5--10---9---8--
Ab -5------5--8 ------8 --3------3--2------2--3------3--8 ---7---6--
Eb -----------------------------------------------------------------

Riff 2A

Eb ----------------------------------------------------------------------------------------
Bb ----------------------------------------------------------------------------------------
Gb -7------7--------10-----10---------0----0--------4----4--------0----0-----4-----2-----1-
Db -7------7-----10-----10----10----2----2---2----4----4--------2----2---2-5---5-3---3-2---
Ab -5------5--8------------------3-------------2-----------2-3-----------------------------
Eb ----------------------------------------------------------------------------------------

Riff 3

Eb ---------------------------------------------------------------------------------------------
Bb ---------------------------------------------------------------------------------------------
Gb -7------7--10------10--5------5-------------7------7--10------10--5------5--4------4--5------
Db -7------7--10------10--5------5--5------3-0-7------7--10------10--5------5--4------4--5------
Ab -5------5--8 ------8 --3------3--5------3-0-5------5--8 ------8 --3------3--2------2--3------
Eb ---------------------------------3------1----------------------------------------------------

Eb --------------------------------------------
Bb --------------------------------------------
Gb -5--4------4--5-5-5-5-5-5-5-5---4-----2---1-
Db -5--4------4--5-5-5-5-5-5-5-5-5---5-3---2---
Ab -3--2------2--3-3-3-3-3-3-3-3---------------
Eb --------------------------------------------

Riff 3A

Eb --------------------------------------------------------------------------------------------------------------------
Bb --------------------------------------------------------------------------------------------------------------------
Gb -7------7--------10-----10---------0----0-----4---4--7-5---7------7--------10-----10---------0----0--------4----4---
Db -7------7-----10-----10----10----2----2---2-5---5--------7-7------7-----10-----10----10----2----2---2----4----4---4-
Ab -5------5--8------------------3----------------------------5------5--8------------------3-------------2-------------
Eb --------------------------------------------------------------------------------------------------------------------

Eb -------------------------------------------------------------
Bb -------------------------------------------------------------
Gb ------0----0--------4----4---5-5-5-5-5-5-5-5---4-----2-----1-
Db ----2----2---2----4----4---4-5-5-5-5-5-5-5-5-5---5-3---3-2---
Ab -3-------------2-------------3-3-3-3-3-3-3-3-----------------
Eb -------------------------------------------------------------

Riff 4

Eb ----------------------------------------------------------------------
Bb ----------------------------------------------------------------------
Gb -2------------------7------7--7-------------------7-------------------
Db -2------------------5------4--4----------3--------4-------------------
Ab -0--------------0-0-0------0--0----------3--------0--------3----2-----
Eb ---------------------------------------0-1-------------------------3--

Eb ----------------------------------------------------------------------
Bb ----------------------------------------------------------------------
Gb -2------------------7------7--7-------------------7-------------------
Db -2------------------5------4--4----------3--------4-------------------
Ab -0--------------0-0-0------0--0----------3--------0--------3---2------
Eb ---------------------------------------0-1-------------------------3--

Riff 4A

Eb -----------------------------------------------------------------------------
Bb -----------------------------------------------------------------------------
Gb -2------------2--4--5--------4---------------------------7-------------------
Db -2------------2--4--5--------4----------3----------------4-------------------
Ab -0------------0--2--3--------2----5--3--3----------------0--------3----2-----
Eb ----------------------------------------1---------------------------------3--

Eb ----------------------------------------------------------------------
Bb ----------------------------------------------------------------------
Gb -2------------------7------7--7-------------------7-------------------
Db -2------------------5------4--4----------3--------4-------------------
Ab -0--------------0-0-0------0--0----------3--------0--------3---2------
Eb ---------------------------------------0-1-------------------------3--

Riff 5

Eb -------------------------------------------------------------------------------------
Bb -------------------------------------------------------------------------------------
Gb -2--------------5----4--------------7----5--------------9----------------------------
Db -2--------------5----4--------------7----5--------------9----------------------------
Ab -0--------0--2--3----2--------2--3--5----3--------3--5--7----8--5--8--7--3--7--5--2--
Eb -------------------------------------------------------------------------------------

Riff 6A

Eb --------------------------------------------------------------------------------------------
Bb --------------------------------------------------------------------------------------------
Gb -2----------2---------2-------4----------4-----------4-------5----------5-----------5-------
Db -2----------2---------2-------4----------4-----------4-------5----------5-----------5-------
Ab -0--0-0-0-0-0-0-0-0-0-0-0-0-0-2--2-2-2-2-2-2-2-2-2-2-2-2-2-2-3--3-3-3-3-3-3-3-3-3-3-3-3-3-3-
Eb --------------------------------------------------------------------------------------------

Eb ---------------------------------------------------
Bb ---------------------------------------------------
Gb ------------------------------------------------2--
Db -3--3--3--3--3--3--3--3--3--3--3--3-------------2--
Ab -3--3--3--3--3--3--3--3--3--3--3--3--3---2------0--
Eb -1--1--1--1--1--1--1--1--1--1--1--1----------3-----

Riff 6

Eb --------------------------------------------------------------------------------------------------------------------
Bb --------------------------------------------------------------------------------------------------------------------
Gb -2----------2---------2-------4----------4-----------4-------5----------5-----------5-------------------------------
Db -2----------2---------2-------4----------4-----------4-------5----------5-----------5-------------------------------
Ab -0--0-0-0-0-0-0-0-0-0-0-0-0-0-2--2-2-2-2-2-2-2-2-2-2-2-2-2-2-3--3-3-3-3-3-3-3-3-3-3-3-3-3-3-8--5--8--7--3--7--5--2--
Eb --------------------------------------------------------------------------------------------------------------------

Riff 7

Eb -------------------------------------------------------------
Bb -------------------------------------------------------------
Gb ------5----5-----2-----4---/7-5------5----5-----2-----4---5--
Db ----7----7---7-3---3-5---5---------7----7---7-3---3-5---5----
Ab -0------------------------------0----------------------------
Eb -------------------------------------------------------------

Riff 7A

Eb ------------------------------------------------------------------------------------------
Bb ------------------------------------------------------------------------------------------
Gb ------------------------------------------------------------------------------------------
Db ------5----5-----2-----4---/7-5------5----5-----2-----4---5-------5----5---2-----4---/7-5-
Ab ----7----7---7-3---3-5---5---------7----7---7-3---3-5---5-------7----7---3---3-5---5------
Eb -0------------------------------0----------------------------0----------------------------

Riff 7B

Eb --------------------------------------------------------------------------------------------------------------------
Bb --------------------------------------------------------------------------------------------------------------------
Gb ------0----0--------0----0-------0----0--------0----0-------0----0--------0----0--7-7-7-7-7-7-7-7-10-10-10-10-5-4---
Db ----2----2---2----2----2-------4----4---4----4----4-------2----2---2----2----2----7-7-7-7-7-7-7-7-10-10-10-10-5-4-5-
Ab -3-------------3------------5-------------5------------3-------------3------------5-5-5-5-5-5-5-5-8 -8 -8 -8 -3-2-5-
Eb ------------------------------------------------------------------------------------------------------------------3-
														 |-3-|

Order

Riff 1 x 2
Solo over Riff 1 x 1
Solo over Riff 1A x 1
Riff 1B x 2
Riff 2/2A x 1
Solo over Riff 1 x 1
Solo over Riff 1B x 2
Riff 3/3A x 1
Riff 4 x 1
Riff 5 x 2
Riff 6A x 1
Solo over Riff 7 x 4
Solo over Riff 7A x 1
Solo over Riff 7B x 1
Riff 4A x 1
Riff 5 x 4
Riff 6 x 6

Tabbed By Radiohater 2003


Overkill albums
2003 Kill Box 13
1999 Necroshine
1997 From the Underground and Below
1996 The Killing Kind
1994 W.F.O.
1993 I Hear Black
1991 Horrorscope
1989 The Years of Decay
1988 Under the Influence
1987 Taking Over
1985 Feel the Fire
Horrorscope tabs
01Rescue tabbass tab
02Promise tabbass tab
03On The Roof Again tabbass tab
04Sunset Strip Bitch tabbass tab
05Here's To The Night tabbass tab
06Amphetamines tabbass tab
07Enemy tabbass tab
08Nocturnal tabbass tab
09Jet Pack tabbass tab
10Nightmare tabbass tab
11Bang tabbass tab
12Girl Eyes tabbass tab

 

1