Search tabs:
Browse artists: 0-9 | A | B | C | D | E | F | G | H | I | J | K | L | M | N | O | P | Q | R | S | T | U | V | W | X | Y | Z
/ Overkill / The Killing Kind (1996) / Let Me Shut That for You guitar tab

OVERKILL - LET ME SHUT THAT FOR YOU
(The Killing Kind, 1996)

Key
= after note = vibrato
^ after note = heavy vibrato
\\ = slide down
/ = slide up
+ = tap
h = hammer
p = pull
n = natural harmonic
s = pinching harmonic (squeal)
* = tremolo pick
t = trill
b = bend
|-3-| = triplet

n number above the tab = play the first part then the first finishing part
			 play the first part a second time and then play the second finishing part
			 etc.

Riff 1A

E ---------------------------------------------------------
B ---------------------------------------------------------
G ---------------------------------------------------------
D -2------2------2------2------2------2------2------2------
A -2------2------2------2------2------2------2------2------
E -0--0-0-0--0-0-0--0-0-0--0-0-0--0-0-0--0-0-0--0-0-0--0-0-

Riff 1

E ------------------------------------------------------
B ------------------------------------------------------
G ------------------------------------------------------
D -2--5-8-9--8-5-8--5-4-5-8-2------2------2------2------
A -2--5-8-9--8-5-8--5-4-5-8-2------2------2------2------
E -0--3-6-7--6-3-6--3-2-3-6-0--0-0-0--0-0-0--0-0-0--0-0-

Fill 1

E ------------------------------
B ------------------------------
G ------------------------------
D -2--0---0------------------2--
A ------2----2-0-2-2---------2--
E -------------------5-3-5-3-0--

Riff 2

E -------------------------------------------------------
B -------------------------------------------------------
G -------------------------------------------------5-4-3-
D -2-3-4-2-3-4----2-4-2-2-4-5--2-3-4-2-3-4---2-4---5-4-3-
A -2-3-4-2-3-4----2-4-2-2-4-5--2-3-4-2-3-4---2-4---3-2-1-
E -0-1-2-0-1-2----0-2-0-0-2-3--0-1-2-0-1-2---0-2-0-------
						   |-3-|

E ----------------------------------------------------------
B ----------------------------------------------------------
G ---------------------------------------------3-3--3--3--3-
D -2-3-4-2-3-4----2-4-2-2-4-5--2-3-4-2-3-4-----3-3--3--3--3-
A -2-3-4-2-3-4----2-4-2-2-4-5--2-3-4-2-3-4-----1-1--1--1--1-
E -0-1-2-0-1-2----0-2-0-0-2-3--0-1-2-0-1-2-0-0--------------

Riff 3

E ----------------------------------------------------------------------------------------------------
B ----------------------------------------------------------------------------------------------------
G ----------------------------------------------------------------------------------------------------
D -4------7--2---5--8-------4--3---------4--3------4------7--2---5--8--------------------10-8-7-8-7-5-
A -4------7--2---5--8------------------------------4------7--2---5--8--------------------10-8-7-8-7-5-
E -2------5--0---3--6--0-2--------0-2--0-------0-0-2------5--0---3--6--66-66-66-66-66-66-8 -6-5-6-5-3-
											 |--3-| |-3-|

E ---------------------------------------------------------------------
B ---------------------------------------------------------------------
G ---------------------------------------------------------------------
D -4------7--2---5--8-------4--3---------4--3------4------7--2----5----
A -4------7--2---5--8------------------------------4------7--2----5----
E -2------5--0---3--6--0-2--------0-2--0-------0-0-2------5--0----3----

Riff 3A

E ----------------------------------------------------------------------------------------------------
B ----------------------------------------------------------------------------------------------------
G ----------------------------------------------------------------------------------------------------
D -4------7--2---5--8-------4--3---------8--7------4------7--2---5--8--------------------10-8-7-8-7-5-
A -4------7--2---5--8------------------------------4------7--2---5--8--------------------10-8-7-8-7-5-
E -2------5--0---3--6--0-2--------0-2--0-------0-0-2------5--0---3--6--66-66-66-66-66-66-8 -6-5-6-5-3-
											 |--3-| |-3-|

E ---------------------------------------------------------------------
B ---------------------------------------------------------------------
G ---------------------------------------------------------------------
D -4------7--2---5--8-------4--3---------8--7------4------7--2----5----
A -4------7--2---5--8------------------------------4------7--2----5----
E -2------5--0---3--6--0-2--------0-2--0-------0-0-2------5--0----3----

Fill 2

E ---------------------------
B ---------------------------
G ---------------4-4---------
D -2--0---0------4-4-7-5-7-5-
A ------2----2-0-2-2-7-5-7-5-
E -------------------5-3-5-3-

Riff 4A

E -------------------------------------------------------------------------------------------------
B -------------------------------------------------------------------------------------------------
G -----------------------------------------3-----4-----------------------------------------3-----4-
D -----4-----0-----4-----0-----4-----0---3-----4-------4-----0-----4-----0-----4-----0---3-----4---
A ---4-----2-----4-----2-----4-----2---1-----2-------4-----2-----4-----2-----4-----2---1-----2-----
E -2-----3-----2-----3-----2-----3-----------------2-----3-----2-----3-----2-----3-----------------

Riff 4B

E ----------------------------------------------------------
B ----------------------------------------------------------
G --------------------------------------------------7---6^^^
D -4-----5------4--------------4------5------4--------------
A ---------------------5---4--------------------------------
E ----------------------------------------------------------

Riff 4

E -----------------------------------------
B -----------------------------------------
G -------------------------------3---4-----
D -4---5-----4---5-----4---5-----3---4-----
A -4---5-----4---5-----4---5-----1---2-----
E -2---3-0-0-2---3-0-0-2---3-0-0-------0-0-

Riff 5

E -------------------------------------------
B -------------------------------------------
G -4---------4---------4---------5---5---5---
D -4---------4---------4---------5---5---5---
A -2---------2---------2---------3---3---3---
E -----0-0-0-----0-0-0-----0-0-0---0---0---0-

Riff 5A

E --------------------------------------------- --------------
B --------------------------------------------- --------------
G -4---------4---------4---------5---5---5---4- -3-3--3--3--3-
D -4---------4---------4---------5---5---5---4- -3-3--3--3--3-
A -2---------2---------2---------3---3---3---2- -1-1--1--1--1-
E -----0-0-0-----0-0-0-----0-0-0---0---0---0--- --------------

Outro A

E ----------------------------------------------------------------------------------------------------------------
B ----------------------------------------------------------------------------------------------------------------
G ---------------4-4-----------------------4-4--------------------------------------------------------------------
D -2--0---0------4-4-7-5-7-5-2--0---0------4-4-7-5-7-5------------------------------------------------------------
A ------2----2-0-2-2-7-5-7-5------2----2-0-2-2-7-5-7-5------------------------------------------------------------
E -------------------5-3-5-3-------------------5-3-5-3-0-2-3-0-2-3-0-2-3-0-2-3-0-2-3-0-2-3-0-2-3-0-2-3-0-2-3-0-s2-

Outro B

E ----------------------------------------------------------------------------------------------------------------
B ----------------------------------------------------------------------------------------------------------------
G ---------------4-4-----------------------4-4--------------------------------------------------------------------
D -2--0---0------4-4-7-5-7-5-5--3---3------4-4-7-5-7-5------------------------------------------------------------
A ------2----2-0-2-2-7-5-7-5------5----2-0-2-2-7-5-7-5------------------------------------------------------------
E -------------------5-3-5-3-------------------5-3-5-3-0-2-3-0-2-3-0-2-3-0-2-3-0-2-3-0-2-3-0-2-3-0-2-3-0-2-3-0-s2-

Order

Riff 1A x 1
Riff 1 x 2
Fill 1 x 1
Riff 2 x 2
Riff 3/3A x 1
Riff 1 x 2
Fill 2 x 1
Riff 2 x 2
Riff 3/3A x 1
Riff 1 x 2
Fill 1 x 1
Riff 4A/4B x 1
Riff 4 x 2
Riff 4A/4B x 1
Riff 4 x 2
Riff 4A/4B x 1
Riff 4 x 2
Solo over Riff 5 x 2
Riff 4 x 2
Solo over Riff 5 x 1
Solo over Riff 5A x 1
Riff 2 x 2
Riff 3/3A x 1
Riff 1 x 2
Outro A/B x 1

Tabbed by Radiohater 2004


Overkill albums
2003 Kill Box 13
1999 Necroshine
1997 From the Underground and Below
1996 The Killing Kind
1994 W.F.O.
1993 I Hear Black
1991 Horrorscope
1989 The Years of Decay
1988 Under the Influence
1987 Taking Over
1985 Feel the Fire
The Killing Kind tabs
01Battle tabbass tab
02God-Like tabbass tab
05Let Me Shut That for You tabbass tab

 

1