Search tabs:
Browse artists: 0-9 | A | B | C | D | E | F | G | H | I | J | K | L | M | N | O | P | Q | R | S | T | U | V | W | X | Y | Z
/ Overkill / Necroshine (1999) / 80 Cycles guitar tab

80 Cycles
Overkill

redhurley182@hotmail.com

Tempo (around) = 78

Intro
E||--------------------------|-------------------------|
B||--------------------------|-------------------------|
G||*-------------------------|-------------------------|
D||*-------------------------|-------------------------|
A||--------------------------|-------------------------|
E||---3----6--3----3-3-6--3--|--3----6--3----3-3-6--3--|



-------------------------|-------------------------||
-------------------------|-------------------------||
-------------------------|------------------------*||
-------------------------|------------------------*||
-------------------------|-------------------------||
--3----6--3----3-3-6--3--|--3----6--3----3-3-6-----||


                                3x    Verse                        7x
----------------------------------||----------------------------------||
----------------------------------||----------------------------------||
*--------------------------------*||*--------------------------------*||
*--------------------------------*||*--------------------------------*||
----------------------------------||----------------------------------||
---3-3--6--3-6-6-6-----6-3-6-6-6--||---3-3--6--3-6-6-6-----6-3-6-6-6--||


 Pre-Chorus                      3x   Verse                          7x
-----------------------------------||----------------------------------||
-----------------------------------||----------------------------------||
*---------------------------------*||*--------------------------------*||
*---------------------------------*||*--------------------------------*||
-----4-----4-----4-----4-----4-----||----------------------------------||
---3---6-3---6-3---6-3---6-3---6---||---3-3--6--3-6-6-6-----6-3-6-6-6--||


 Chorus                          7x
-----------------------------------||-----------------------------------------|
-----------------------------------||-----------------------------------------|
*---------------------------------*||*----------------------------------------|
*---------------------------------*||*----------------------------------------|
-----4-----4-----4-----4-----4-----||------------4--3--4-------------4--3--4--|
---3---6-3---6-3---6-3---6-3---6---||---3-------------------3-----------------|


                                           3x
-------------------------------------------||
-------------------------------------------||
------------------------------------------*||
------------------------------------------*||
-------------4--3--4--------------4----3---||
----3-------------------3----6-------------||



---------------------------------------------|
---------------------------------------------|
*--------------------------------------------|
*--------------------------------------------|
--------------4--3--4---------------4--3--4--|
---3----3--3-------------3----3--3-----------|


                                             3x
---------------------------------------------||-------------------|
---------------------------------------------||-------------------|
--------------------------------------------*||-------------------|
--------------------------------------------*||-------------------|
---------------4--3--4--------------4----3---||--5----------------|
----3----3--3-------------3----6-------------||--3----------------|



------------------|-------------------------|------------------------|
------------------|-------------------------|------------------------|
------------------|-------------------------|------------------------|
------------------|-------------------------|------------------------|
------------------|-------------------------|------------------------|
------------------|--3----6--3--6--------3--|----6--3--6--------3----|



-------------------------|-------------------------|-------------------------|
-------------------------|-------------------------|-------------------------|
-------------------------|-------------------------|-------------------------|
-------------------------|-------------------------|-------------------------|
-------------------------|-------------------------|-------------------------|
--6--3--6--------3----6--|--3--6--------3----6--3--|--6--------3----6--3--6--|



------------------------|-------------------------|
------------------------|-------------------------|
------------------------|-------------------------|
------------------------|-------------------------|
------------------------|-------------------------|
--------3----6--3--6----|------3----6--3--6--6----|



-----------------------------------------------|--||
-----------------------------------------------|--||
-----------------------------------------------|--||
-----------------------------------------------|--||
-----------------------------------------------|--||
--8--8--8--8--8--8--8--8--8--8--8--8--8--8--8--|--||


Overkill albums
2003 Kill Box 13
1999 Necroshine
1997 From the Underground and Below
1996 The Killing Kind
1994 W.F.O.
1993 I Hear Black
1991 Horrorscope
1989 The Years of Decay
1988 Under the Influence
1987 Taking Over
1985 Feel the Fire
Necroshine tabs
01Necroshine tabbass tab
0480 Cycles tabbass tab
05Revelation tabbass tab
06Stone Cold Jesus tabbass tab

 

1