Search tabs:
Browse artists: 0-9 | A | B | C | D | E | F | G | H | I | J | K | L | M | N | O | P | Q | R | S | T | U | V | W | X | Y | Z
/ Overkill / Necroshine (1999) / Necroshine guitar tab

OVERKILL - NECROSHINE
(Necroshine, 1999)

Key
= after note = vibrato
^ after note = heavy vibrato
\\ = slide down
/ = slide up
+ = tap
h = hammer
p = pull
n = natural harmonic
s = pinching harmonic (squeal)
* = tremolo pick
t = trill
b = bend
|-3-| = triplet

n number above the tab = play the first part then the first finishing part
			 play the first part a second time and then play the second finishing part
			 etc.

Tune Down 1 Step

Intro A

D ---------------------
A ---------------------
F ---------------------
C -2----2----2----2----
G ---------------------
D ----0----0----0----0-

Intro B

D -------------------------
A -------------------------
F -------------------------
C -2-----2-----2-----2-----
G -------------------------
D ---0-0---0-0---0-0---0-0-

Riff 1

D ---------------------------------
A ---------------------------------
F ---------------------------------
C ---------------------------------
G ---------------------------------
D -0-0-0-0-0-0-0-0-0-0-0-0-0-0-0-0-

Riff 2

D ------------------
A ------------------
F ------------------
C -2--2---2--2--2---
G -2--2---2--2--2---
D -0--0---0--0--0---

Riff 3

D -------------------------------------------------------
A -------------------------------------------------------
F -------------------------------------------------------
C ------------------------2------------------------------
G -7---6---5--------------2------------------------------
D -------------7---6--5-3-0--0-0-0-0-0-0-0-0-0-0-0-0-0-0-

Riff 3A

D ----------------------------------------------------------------------------------------------------------------
A ----------------------------------------------------------------------------------------------------------------
F ----------------------------------------------------------------------------------------------------------------
C ----------------------------------------------------------------------2---5---7---8---9----------------2--------
G -7---6---5--------------7---6---5--------------7---6---5--------------2---5---7---8---9--7--6t7--------2--------
D -------------7---6--5-0-------------7---6--5-0-------------7---6--5-3-0---3---5---6---7----------------0--------

Riff 3B

D ----------------------------------------------------------------------------------------------------------------
A ----------------------------------------------------------------------------------------------------------------
F ----------------------------------------------------------------------------------------------------------------
C -----------------------------------------------9---8---7--------------2---5---7---8---9----------------2--------
G -7---6---5--------------7---6---5--------------------------9---8--7\\--2---5---7---8---9--7--6t7--------2--------
D -------------7---6--5-0-------------7---6--5-0------------------------0---3---5---6---7----------------0--------

Riff 4

D ------------------------------------------------------------------------------------------------------------------
A ------------------------------------------------------------------------------------------------------------------
F ------------------------------------------------------------------------------------------------------------------
C --------------------------------------------------7--8------------------------------------------------------------
G --------------------------------------------------7--8------------------------------------------------------------
D -0-0--0-1-0--0-0-0--0-1-0--0-0-0--0-1-0--0-0-0--0-5--6--0-0--0-1-0--0-0-0--0-1-0--0-0-0--0-1-0--0-1-0-0-1-0-0-1-0-

Riff 4A

D ------------------------------------------------------------------------------------------------------------------
A ------------------------------------------------------------------------------------------------------------------
F ------------------------------------------------------------------------------------------------------------------
C --------------------------------------------------7--8------------------------------------------------------------
G --------------------------------------------------7--8------------------------------------------------------------
D -0-0--0-1-0--0-0-0--0-1-0--0-0-0--0-1-0--0-0-0--0-5--6--0-0--0-1-0--0-0-0--0-1-0--0-0-0--0-1-0--0-1-0-0-1-0-0-1-0-

D -----------------
A -----------------
F -----------------
C -----------------
G -----------------
D -1-0-0-1-0-0-1-0-

Riff 5

D -------------------------------------------------------------------------------------------------
A -------------------------------------------------------------------------------------------------
F -------------------------------------------------------------------------------------------------
C -------------------------------------------------------------------------------------------------
G -------------------------------------------------------------------------------------------------
D -n5-n5-n5-n5-n5-n5-n5-n5-n5-n5-n5-n5-n5-n5-n5-n5-n5-n5-n5-n5-n5-n5-n5-n5-n5-n5-n5-n5-n5-n5-n5-n5-

D -------------------------------
A -------------------------------
F -9--10--9-10--9--10--9-10--10--
C -9--10--9-10--9--10--9-10--10--
G -7--8 --7-8 --7--8 --7-8 --8 --
D -------------------------------

Riff 6

D -------------------------------------------------------------------------------------------------------------
A -------------------------------------------------------------------------------------------------------------
F -------------------------------------------------------------------------------------------------------------
C -------------------------------------------------------------------------------------------------------------
G -------------------------------------------------------------------------------------------------------------
D -0-2-3-0-2-3--0--2-3-0-2-3--0--2-3-0-2-3--0--2-3-0-2-3-4--0-2-3-0-2-3--0--2-3-0-2-3--0--2-3-0-2-3--0---------

Fill 1

D -----------------------------------------------------------------
A -----------------------------------------------------------------
F -----------------------------------------------------------------
C -7--8------------------------------------------------------------
G -7--8------------------------------------------------------------
D -5--6--0-0--0-1-0--0-0-0--0-1-0--0-0-0--0-1-0--0-1-0-0-1-0-0-1-0-

Fill 2

D ---------------------------------------------------------------------
A ---------------------------------------------------------------------
F ------------------9---------------------------------9----------------
C -2----------------9----------------2----------------9----------------
G -2----------------7----------------2----------------7----------------
D -0---------------------------------0---------------------------------

Riff 7

D -----------------------------------------------------
A -----------------------------------------------------
F -----------------------------------------------------
C ---------------------------------------------2-2-2-2-
G ---------------------------------------------2-2-2-2-
D -0-3--0-3--0-3--0-3------0-3--0-3--0-3--0-3--0-0-0-0-

Riff 7A

D ----------------------------------------------------------------
A ----------------------------------------------------------------
F ----------------------------------------------------------------
C ---------------------------------------------2-2-2-2--2-2-2-2-2-
G ---------------------------------------------2-2-2-2--2-2-2-2-2-
D -0-3--0-3--0-3--0-3------0-3--0-3--0-3--0-3--0-0-0-0--0-0-0-0-0-

Riff 7B

D -----------------------------------------------------
A -----------------------------------------------------
F -----------------------------------------------------
C ---------------------------------------------2-2-2-2-
G ---------------------------------------------2-2-2-2-
D -0-6--0-6--0-6--0-6------0-6--0-6--0-6--0-6--0-0-0-0-

Riff 8

D ------------------------------------------------------------
A ------------------------------------------------------------
F -----9-----------------------------9------------------------
C -----9---8----7--------------------9---8----7------------5--
G -----7---8----7--------------------7---8----7------------5--
D -0-0---0-6--0-5--0-0-0-0-0-0-0-0-0---0-6--0-5--0-0-0-0-0-3--

Fill 3

D ---------------------------------------
A ---------------------------------------
F ---------------------------------------
C -2-------------------------------------
G -2-------------------------------------
D -0----------------17\\--------x\\--------

Fill 4

D -----------------------
A -----------------------
F -----------------------
C -2----2----2----2----2-
G -2----2----2----2----2-
D -0----0----0----0----0-

Order

Intro A/B until fade
Riff 1 until fade
Riff 2 x 4
Riff 1 x 4
Riff 3 x 2
Riff 3A/3B x 1
Riff 4 x 2
Riff 5 x 1
Riff 4 x 1
Riff 5 x 1
Riff 4 x 1
Riff 6 x 2
Fill 1 x 1
Riff 4 x 1
Riff 5 x 1
Riff 4 x 1
Riff 5 x 1
Riff 4 x 1
Riff 6 x 2
Fill 2 x 1
Riff 7 x 1
Riff 7A x 1
Riff 7 x 4
Riff 8 x 2
Riff 7 x 4
Riff 8 x 2
Riff 7 x 4
Riff 7/7B x 2
Fill 3 x 1
Riff 4 x 1
Riff 4A x 1
Riff 4 x 2
Fill 4 x 1

Tabbed by Radiohater 2004


Overkill albums
2003 Kill Box 13
1999 Necroshine
1997 From the Underground and Below
1996 The Killing Kind
1994 W.F.O.
1993 I Hear Black
1991 Horrorscope
1989 The Years of Decay
1988 Under the Influence
1987 Taking Over
1985 Feel the Fire
Necroshine tabs
01Necroshine tabbass tab
0480 Cycles tabbass tab
05Revelation tabbass tab
06Stone Cold Jesus tabbass tab

 

1