Search tabs:
Browse artists: 0-9 | A | B | C | D | E | F | G | H | I | J | K | L | M | N | O | P | Q | R | S | T | U | V | W | X | Y | Z
/ Overkill / Necroshine (1999) / Revelation (Mother Earth) guitar tab

LEGEND:
   h = hammer-on
   b = bend
   p = pull-off
 p.m = palm mute
 A.H = artificial harmonics
 N.H = natural harmonics
   / = slide up
   \ = slide down
   x = muted/undetermined note


TUNING: Standard

Intro:

     Guitar 1
     N.H...........................
E|-----------------------------------|
B|-----------------------------------|
G|-----------------------------------|
D|---5---5---5-5-5-5-5---5---5---5---|
A|-----------------------------------|
D|-----------------------------------|
 |                                   |
 |   Guitar 2                        |
 |           N.H....         N.H...  |
E|-----------------------------------|
B|-----------------------------------|
G|-----------------------------------|
D|-----------5-5-5-5---------5---5---|
A|-----------------------------------|
D|-----------------------------------|


Fill 1:

     Guitar 3

E|-----------------------------------|
B|-----------------------------------|
G|-----------------------------------|
D|-----------------------------------|
A|-----------------------------------|
D|---0---0---1-1-1-1-0---0---1---0---|


Fill 2:

     Guitar 3

E|-----------------------------------|
B|-----------------------------------|
G|-----------------------------------|
D|-----------------------------------|
A|-------------------------------1---|
D|---0---0---1-1-1-1-0---1---3-------|


Main Riff:


E|-----------------------------------|-----------------------------------|
B|-----------------------------------|-----------------------------------|
G|-----------------------------------|-----------------------------------|
D|-----------------------7----6------|-----------------------7----6------|
A|-----------------------5----6------|-----------------------5----6------|
D|---0---0---0-0-0-0----------6------|---0---0---0-0-0-0----------6------|


E|-----------------------------------|-----------------------------------|
B|-----------------------------------|-----------------------------------|
G|-----------------------------------|-----------------------------------|
D|-----------------------7----6------|-----------------------7----6---5--|
A|-----------------------5----6------|-----------------------5----6---5--|
D|---0---0---0-0-0-0----------6------|---3---3---3-3-3-3----------6---5--|




Chorus:


E|-------------------------------------------------|
B|-------------------------------------------------|
G|-------------------------------------------------|
D|-------------------------------------------------|
A|---2---0---2---0-0-0-0-0-0-0-0-0-0-0-0-0-0-0-0---|
D|---2---0---2---0-0-0-0-0-0-0-0-0-0-0-0-0-0-0-0---|


E|-------------------------------------------------|
B|-------------------------------------------------|
G|-------------------------------------------------|
D|-------------------------------------------------|
A|---2---0---2---0-0-0-0-0-0-0-0-0-0-0-0-0-0-0-0---|
D|---2---0---2---0-0-0-0-0-0-0-0-0-0-0-0-0-0-0-0---|


E|-----------|
B|-----------|
G|-----------|
D|---5---3---|
A|---5---3---|
D|---5---3---|



Interlude:

     Guitar 1

E|--------------------------------|
B|--------------------------------|
G|--------------------------------|
D|---0------2------3------5-------|
A|---0------2------3------5-------|
D|---0------2------3------5-------|
 |                                |
 |   Guitar 2                     |
 |                                |
E|--------------------------------|
B|--------------------------------|
G|--------------------------------|
D|---0--0---0--0---0--0---0--0----|
A|---0--0---0--0---0--0---0--0----|
D|---0--0---0--0---0--0---0--0----|
    p.m    p.m    p.m    p.m



Guitar Solo:


     Guitar 1:

     N.H...................
E|--------------------------------|
B|---5-----------------5----------|
G|------5-----------------5~~~~~~-|
D|---------5--4--5----------------|
A|------------------5-------------|
D|--------------------------------|
 |                                |
 |   Guitar 2                     |
 |                                |
E|--------------------------------|
B|--------------------------------|
G|--------------------------------|
D|---5--5--5--5--5--5--5--5-------|
A|---5--5--5--5--5--5--5--5-------|
D|---5--5--5--5--5--5--5--5-------|



     Guitar 1: (Guitar 2 plays the chorus riff)

E|---12-0-14-0-15-0-17---|---12-0-14-0-15-0-17---|
B|-----------------------|-----------------------|
G|-----------------------|-----------------------|
D|-----------------------|-----------------------|
A|-----------------------|-----------------------|
D|-----------------------|-----------------------|


E|---12-0-14-0-15-0-17---|---15-0-14-0-10--------|
B|-----------------------|-----------------------|
G|-----------------------|-----------------------|
D|-----------------------|-----------------------|
A|-----------------------|-----------------------|
D|-----------------------|-----------------------|


E|------------------------------------------------------|
B|---x---12--------15---12--------15---12---------------|
G|------------15-------------15--------------15---14b---|
D|------------------------------------------------------|
A|------------------------------------------------------|
D|------------------------------------------------------|


E|-----------------------------------------------------------------------------|
B|-15-12-------15-12-------15-12-------15-12-------15-12-------15-12-------15b-|
G|-------14-12-------14-12-------14-12-------14-12-------14-12-------14-12-----|
D|-----------------------------------------------------------------------------|
A|-----------------------------------------------------------------------------|
D|-----------------------------------------------------------------------------|


E|-----------------------------------------------------------------------------|
B|--------------------------------17-17----14----------14----------------------|
G|--------------------14-14-15-15----------------14----------14~~~~~-----------|
D|--14-14-16-16-17-17----------------------------------------------------------|
A|-----------------------------------------------------------------------------|
D|-----------------------------------------------------------------------------|


E|--------------------------------------------------------------12-------------|
B|--17------17------12h15h12----12h15h15---------------------12----15-14-12----|
G|--19b-----19b--------------15----------15---15bb-------14b-------------------|
D|-----------------------------------------------------------------------------|
A|-----------------------------------------------------------------------------|
D|-----------------------------------------------------------------------------|


E|--------------------------------------------|
B|---17-12-15-12-17-12-15-12------------------|
G|---------------------------14h15p14p12------|
D|---------------------------------------14---|
A|--------------------------------------------|
D|--------------------------------------------|


E|-----------------------------------------------------------------------------|
B|-----------------------------------------------------------------------------|
G|-------------------------12h15p12----12h15-12h15-15h18p15----15h18-15h18-19b-|
D|-14h17p14----14h17p14-------------14----------------------19-----------------|
A|----------17----------17-----------------------------------------------------|
D|-----------------------------------------------------------------------------|


E|----------------------------------------------------------------------------|
B|--------------------------------------------------------------20bb----------|
G|---11h12p11----11h12h14----15h16p15----15h16h19-----19---16-----------------|
D|------------14----------------------19--------------------------------------|
A|----------------------------------------------------------------------------|
D|----------------------------------------------------------------------------|


E|---------------------------------------------12h15-14-12-14-15-14-12h14-----|
B|--------------------------------------10b-----------------------------------|
G|----------------------------------------------------------------------------|
D|--2----5~~~~5--5b--5--2--5--2--0-h2-----------------------------------------|
A|----------------------------------------------------------------------------|
D|----------------------------------------------------------------------------|


E|----------------------------------------------------------------------------|
B|--17p12----------12-17p12----------12-18p13----------13-18p13----------13---|
G|--------12----12----------12----12----------13----13----------13----13------|
D|-----------14----------------14----------------15----------------15---------|
A|----------------------------------------------------------------------------|
D|----------------------------------------------------------------------------|


E|----------------------------------------------------------------------------|
B|--15p10----------10-15p10----------10---------------------------------------|
G|--------10----10----------10----10----13p10----------10-15p12----------12---|
D|-----------12----------------12-------------10----10----------12----12------|
A|-----------------------------------------------11----------------13---------|
D|----------------------------------------------------------------------------|


E|----------------------------------------------------------------------------|
B|--17p12----------12-17p12----------12-18p13----------13-18p13----------13---|
G|--------12----12----------12----12----------13----13----------13----13------|
D|-----------14----------------14----------------15----------------15---------|
A|----------------------------------------------------------------------------|
D|----------------------------------------------------------------------------|


E|--------------------------------------------------------18p15----------15---|
B|--18p15----------15-18p15----------15-21p18----------18-------15----15------|
G|--------14----14----------14----14----------17----17-------------15---------|
D|-----------15----------------15----------------18---------------------------|
A|----------------------------------------------------------------------------|
D|----------------------------------------------------------------------------|
END


Overkill albums
2003 Kill Box 13
1999 Necroshine
1997 From the Underground and Below
1996 The Killing Kind
1994 W.F.O.
1993 I Hear Black
1991 Horrorscope
1989 The Years of Decay
1988 Under the Influence
1987 Taking Over
1985 Feel the Fire
Necroshine tabs
01Necroshine tabbass tab
0480 Cycles tabbass tab
05Revelation tabbass tab
06Stone Cold Jesus tabbass tab

 

1