Search tabs:
Browse artists: 0-9 | A | B | C | D | E | F | G | H | I | J | K | L | M | N | O | P | Q | R | S | T | U | V | W | X | Y | Z
/ Overkill / Taking Over (1987) / Deny the Cross guitar tab

Deny The Cross
                                   Overkill


D||------------------------|-------------------------|
A||------------------------|-------------------------|
F||--11--------14----16----|--13--------14---13---9--|
C||--11--------14----16----|--13--------14---13---9--|
G||--9---------12----14----|--11--------12---11---7--|
D||------------------------|-------------------------|



|-------------------------|--------------------------||------------------------|
|-------------------------|--------------------------||------------------------|
|*--11--------14----16----|--13--------14---13---9--*||--11--------14----16----|
|*--11--------14----16----|--13--------14---13---9--*||--11--------14----16----|
|---9---------12----14----|--11--------12---11---7---||--9---------12----14----|
|-------------------------|--------------------------||------------------------|



-------------------------||-------------------------|
-------------------------||-------------------------|
--13--------14---13---9--||*--11\\-------14----16----|
--13--------14---13---9--||*--11\\-------14----16----|
--11--------12---11---7--||---9\\--------12----14----|
-------------------------||-------------------------|


                          3x
--------------------------||--------------------------|
--------------------------||--------------------------|
--13--------14---13---9--*||--------------------------|
--13--------14---13---9--*||--------------------------|
--11--------12---11---7---||--4-----------------------|
--------------------------||--2--------2----2----2----|



--------------------------|--------------------------|-------------------|
--------------------------|--------------------------|-------------------|
--------------------------|--------------------------|-------------------|
--------------------------|--------------------------|-------------------|
--4-----------------------|--4-----------------------|--4----------------|
--2--------2----2----2----|--2--------2----2----2----|--2----------------|



------------------|------------------||-----------------------------------|
------------------|------------------||-----------------------------------|
------------------|------------------||*----------------------------------|
------------------|------------------||*----------------------------------|
------------------|------------------||-----------------------------------|
------------------|------------------||---2-2-2-2-2-2-2-2-2-2-2-2-2-2-2-2-|



-----------------------------|----------------------------------|
-----------------------------|----------------------------------|
-----------------------------|----------------------------------|
------------------4---2---5--|----------------------------------|
------------------2---0---3--|----------------------------------|
--2-2-2-2-2-2-2-2------------|--2-2-2-2-2-2-2-2-2-2-2-2-2-2-2-2-|



------------------------------|----------------------------------|
------------------------------|----------------------------------|
------------------------------|----------------------------------|
----------------------5----5--|----------------------------------|
----------------------3----3--|----------------------------------|
--2-2-2-2-2-2-2-2-2-2---------|--2-2-2-2-2-2-2-2-2-2-2-2-2-2-2-2-|



-----------------------------|--------------------------------|
-----------------------------|--------------------------------|
-----------------------------|--------------------------11----|
------------------4---2---5--|--------------------------11----|
------------------2---0---3--|--9-9-9-9-9-9-9-9-9-9-9-9-9-----|
--2-2-2-2-2-2-2-2------------|--------------------------------|



-----------------------|----------------------------------|
-----------------------|----------------------------------|
--14\\------------------|----------------------------------|
--14\\-------2---4---5--|----------------------------------|
--12\\-------0---2---3--|----------------------------------|
-----------------------|--2-2-2-2-2-2-2-2-2-2-2-2-2-2-2-2-|



-----------------------------|----------------------------------|
-----------------------------|----------------------------------|
-----------------------------|----------------------------------|
------------------4---2---5--|----------------------------------|
------------------2---0---3--|----------------------------------|
--2-2-2-2-2-2-2-2------------|--2-2-2-2-2-2-2-2-2-2-2-2-2-2-2-2-|



------------------------------|----------------------------------|
------------------------------|----------------------------------|
------------------------------|----------------------------------|
----------------------5----5--|----------------------------------|
----------------------3----3--|----------------------------------|
--2-2-2-2-2-2-2-2-2-2---------|--2-2-2-2-2-2-2-2-2-2-2-2-2-2-2-2-|



-----------------------------|--------------------------------|
-----------------------------|--------------------------------|
-----------------------------|--------------------------11----|
------------------4---2---5--|--------------------------11----|
------------------2---0---3--|--9-9-9-9-9-9-9-9-9-9-9-9-9-----|
--2-2-2-2-2-2-2-2------------|--------------------------------|



-----------------------|-----------------------|--------------------------|
-----------------------|-----------------------|--------------------------|
--14\\------------------|-----------------------|--------------------------|
--14\\-------2---4---5--|----4----2--5----------|----4----2--4/-5----------|
--12\\-------0---2---3--|----2----0--3----6/-7--|----2----0--2/-3--4-3-2-0-|
-----------------------|-----------------4/-5--|--------------------------|



-----------------------|----------------------|-------------------|
-----------------------|----------------------|-------------------|
-----------------------|----------------------|-------------------|
----4----2--5----------|--5--------7---4---5--|-------------------|
----2----0--3----6--7--|--3--------5---2---3--|--4----------------|
-----------------4--5--|----------------------|--2----------------|



-------------------|----------------------|---------------------|
-------------------|----------------------|---------------------|
-------------------|----------------------|---------------------|
-------------------|----------------------|-------------5----5--|
--6----------------|--7--------9---7---6--|--4----------3----3--|
--4----------------|--5--------7---5---4--|--2------------------|



-------------------|-------------------|----------------------|
-------------------|-------------------|----------------------|
-------------------|-------------------|----------------------|
-------------------|-------------------|----------------------|
--4----------------|--6----------------|--7--------9---7---6--|
--2----------------|--4----------------|--5--------7---5---4--|



-------------------|----------------------------------|
-------------------|----------------------------------|
-------------------|--2h4p2h4p2h4p2h4p2h4p2h4p2h4p2h4p|
-------------------|----------------------------------|
--4----------------|----------------------------------|
--2----------------|----------------------------------|



-------------------------|--------------------|-------------------|
-------------------------|--------------------|-------------------|
--2h4p2h4p2h4p2----------|----11b-------------|----2--------------|
-------------------------|--------------------|-------------------|
-------------------------|--------------------|-------------------|
-------------------------|--------------------|-------------------|



--------------------------|------------------------------|
--9p-7h-9p-7h-9p-7h-9p-7h-|--12p-10h-12p-10p-9h-7p-9h-7--|
--------------------------|------------------------------|
--------------------------|------------------------------|
--------------------------|------------------------------|
--------------------------|------------------------------|



--8p5-9p6-10p7-11p8-12p9-13p10-14p11-15p12-|
-------------------------------------------|
-------------------------------------------|
-------------------------------------------|
-------------------------------------------|
-------------------------------------------|



--16p13-17p14-18p15-19p16-20p17-21p18-22p19-23p20-|
--------------------------------------------------|
--------------------------------------------------|
--------------------------------------------------|
--------------------------------------------------|
--------------------------------------------------|



----------------------------------|-----------------------------|
----------------------------------|-----------------------------|
----------------------------------|-----------------------------|
----------------------------------|------------------4---2---5--|
----------------------------------|------------------2---0---3--|
--2-2-2-2-2-2-2-2-2-2-2-2-2-2-2-2-|--2-2-2-2-2-2-2-2------------|



----------------------------------|------------------------------|
----------------------------------|------------------------------|
----------------------------------|------------------------------|
----------------------------------|----------------------5----5--|
----------------------------------|----------------------3----3--|
--2-2-2-2-2-2-2-2-2-2-2-2-2-2-2-2-|--2-2-2-2-2-2-2-2-2-2---------|



----------------------------------|-----------------------------|
----------------------------------|-----------------------------|
----------------------------------|-----------------------------|
----------------------------------|------------------4---2---5--|
----------------------------------|------------------2---0---3--|
--2-2-2-2-2-2-2-2-2-2-2-2-2-2-2-2-|--2-2-2-2-2-2-2-2------------|



--------------------------------|-----------------------|
--------------------------------|-----------------------|
--------------------------11----|--14\\------------------|
--------------------------11----|--14\\-------2---4---5--|
--9-9-9-9-9-9-9-9-9-9-9-9-9-----|--12\\-------0---2---3--|
--------------------------------|-----------------------|



-----------------------|--------------------------|-----------------------|
-----------------------|--------------------------|-----------------------|
-----------------------|--------------------------|-----------------------|
----4----2--5----------|----4----2--4/-5----------|----4----2--5----------|
----2----0--3----6/-7--|----2----0--2/-3--4-3-2-0-|----2----0--3----6--7--|
-----------------4/-5--|--------------------------|-----------------4--5--|



----------------------|-------------------|-------------------|
----------------------|-------------------|-------------------|
----------------------|-------------------|-------------------|
--5--------7---4---5--|-------------------|-------------------|
--3--------5---2---3--|--4----------------|--6----------------|
----------------------|--2----------------|--4----------------|



----------------------|---------------------|-------------------|
----------------------|---------------------|-------------------|
----------------------|---------------------|-------------------|
----------------------|-------------5----5--|-------------------|
--7--------9---7---6--|--4----------3----3--|--4----------------|
--5--------7---5---4--|--2------------------|--2----------------|



-------------------|----------------------|--------------------------------|
-------------------|----------------------|--------------------------------|
-------------------|----------------------|--------------------------------|
-------------------|----------------------|--------------5--------------5--|
--6----------------|--7--------9---7---6--|--------------3--------------3--|
--4----------------|--5--------7---5---4--|--2-2-2-2-2-2----2-2-2-2-2-2----|



-----------------------|--------------------------------|
-----------------------|--------------------------------|
-----------------------|--------------------------------|
------5------5------5--|--------------5--------------5--|
------3------3------3--|--------------3--------------3--|
--2-2----2-2----2-2----|--2-2-2-2-2-2----2-2-2-2-2-2----|



--------------------------||-----------------------------|
--------------------------||-----------------------------|
--------------------------||*--11----11-------12--11--9--|
------5------5------5-----||*--11----11-------12--11--9--|
------3------3------3-----||---9-----9-----9--10--9---7--|
--2-2----2-2----2-2----2--||-----------------------------|


                            2x
----------------------------||----------------------------|
----------------------------||----------------------------|
--11----11-----9---14---9--*||--11----11-------12--11--9--|
--11----11-----9---14---9--*||--11----11-------12--11--9--|
--9-----9------7---12---7---||--9-----9-----9--10--9---7--|
------------7---------------||----------------------------|



-----------------------------||-----------------------------|
-----------------------------||-----------------------------|
--11----11----9----9----9----||*--11----11-------12--11--9--|
--11----11----9----9----9----||*--11----11-------12--11--9--|
--9-----9-----7----7----7----||---9-----9-----9--10--9---7--|
-----------------------------||-----------------------------|


                            3x
----------------------------||--------------------------------|
----------------------------||--------------------------------|
--11----11-----9---14---9--*||--------------------------------|
--11----11-----9---14---9--*||--------------5--------------5--|
--9-----9------7---12---7---||--------------3--------------3--|
------------7---------------||--2-2-2-2-2-2----2-2-2-2-2-2----|



-----------------------|--------------------------------|
-----------------------|--------------------------------|
-----------------------|--------------------------------|
------5------5------5--|--------------5--------------5--|
------3------3------3--|--------------3--------------3--|
--2-2----2-2----2-2----|--2-2-2-2-2-2----2-2-2-2-2-2----|



--------------------------|--12b---13p-12--12b---9h12p9----|
--------------------------|-----------------------------12-|
--------------------------|--------------------------------|
------5------5------5-----|--------------------------------|
------3------3------3-----|--------------------------------|
--2-2----2-2----2-2----2--|--------------------------------|



--17b---18p-17--17b---14h17p14----|--22b---23p-22--22b--19-----------|
-------------------------------17-|------------------------22r-22p19-|
----------------------------------|----------------------------------|
----------------------------------|----------------------------------|
----------------------------------|----------------------------------|
----------------------------------|----------------------------------|



------------------------|-------------------------|-------------------------|
--22b---22~-------22\\---|-------------------------|----------------------7--|
------------------------|--9b---19p-9--9b---7--9--|--7----------------7-----|
------------------------|-------------------------|-------9p7-9--9\\---------|
------------------------|-------------------------|-------------------------|
------------------------|-------------------------|-------------------------|



--------------------------------|--14-------------12-----------10-----------9--|
--12r-----------------------12--|-------------10------------8------------7-----|
----------11--11~-------11------|----------9-------------7------------6--------|
--------------------12----------|------11-------------9------------7-----------|
--------------------------------|----------------------------------------------|
--------------------------------|----------------------------------------------|



------------------------------|------------------------------|
------------------------------|------------------------------|
-------------------------4~---|-------------------------6~---|
-----------------5h7p5h7------|-----------------7h9p7h9------|
--4h5p4--5h7p5h7--------------|--6h7p6--7h9p7h9--------------|
------------------------------|------------------------------|



----------------------------------|--9h12p9------------------------------|
----------------------------------|---------12-9h12p9--------------------|
-----------------------------8----|-------------------11-9h11p9----11----|
-------------------9h11p9h11------|-----------------------------11-------|
--8h9p8--9h11p9h11----------------|--------------------------------------|
----------------------------------|--------------------------------------|



------------------------------|------------------------------|
------------------------------|------------------------------|
-------------------------4~---|-------------------------6~---|
-----------------5h7p5h7------|-----------------7h9p7h9------|
--4h5p4--5h7p5h7--------------|--6h7p6--7h9p7h9--------------|
------------------------------|------------------------------|



----------------------------------|
----------------------------------|
-----------------------------8----|
-------------------9h11p9h11------|
--8h9p8--9h11p9h11----------------|
----------------------------------|



--22p21p19-21p19p17-19p17p16-17p16p14-17p14----12------------------------|
--------------------------------------------17----14-10-13p12p10---------|
-----------------------------------------------------------------11p9----|
----------------------------------------------------------------------11-|
-------------------------------------------------------------------------|
-------------------------------------------------------------------------|



--------------------|----------------------------------|
--------------------|----------------------------------|
--11\\---------------|----------------------------------|
--11\\---------------|----------------------------------|
--9\\----------------|----------------------------------|
--------------------|--2-2-2-2-2-2-2-2-2-2-2-2-2-2-2-2-|



----------------------------------|-----------------------------|
----------------------------------|-----------------------------|
----------------------------------|-----------------------------|
----------------------------------|-----------------------------|
----------------------------------|------------------9---7---6--|
--4-4-4-4-4-4-4-4-4-4-4-4-4-4-4-4-|--5-5-5-5-5-5-5-5-7---5---4--|



------------------------------|----------------------------------|
------------------------------|----------------------------------|
------------------------------|----------------------------------|
----------------------5----5--|----------------------------------|
----------------------3----3--|--9-9-9-9-9-9-9-9-9-9-9-9-9-9-9-9-|
--2-2-2-2-2-2-2-2-2-2---------|----------------------------------|



--------------------------------------------------|
--------------------------------------------------|
--------------------------------------------------|
--------------------------------------------------|
--11-11-11-11-11-11-11-11-11-11-11-11-11-11-11-11-|
--------------------------------------------------|



----------------------------------|--------------------|--------------------|
----------------------------------|--------------------|--------------------|
--------------14----16---14---13--|--11----------------|--11----------------|
--------------14----16---14---13--|--11----------------|--11----------------|
--12-12-12-12-12----14---12---11--|--9-----------------|--9-----------------|
----------------------------------|--------------------|--------------------|



------------------|------------------|------------------|--------------------||
------------------|------------------|------------------|--------------------||
------------------|------------------|------------------|--11----------------||
------------------|------------------|------------------|--11----------------||
------------------|------------------|------------------|--9-----------------||
------------------|------------------|------------------|--------------------||


Overkill albums
2003 Kill Box 13
1999 Necroshine
1997 From the Underground and Below
1996 The Killing Kind
1994 W.F.O.
1993 I Hear Black
1991 Horrorscope
1989 The Years of Decay
1988 Under the Influence
1987 Taking Over
1985 Feel the Fire
Taking Over tabs
01Deny the Cross tabbass tab
02Wrecking Crew tabbass tab
03Fear His Name tabbass tab
04Use Your Head tabbass tab
05Fatal If Swallowed tabbass tab
06Powersurge tabbass tab
07In Union We Stand tabbass tab
08Electro-Violence tabbass tab

 

1