Search tabs:
Browse artists: 0-9 | A | B | C | D | E | F | G | H | I | J | K | L | M | N | O | P | Q | R | S | T | U | V | W | X | Y | Z
/ Overkill / Taking Over (1987) / Electro-Violence guitar tab

OVERKILL - ELECTRO-VIOLENCE
(Taking Over, 1987)

Key
= after note = vibrato
^ after note = heavy vibrato
\\ = slide down
/ = slide up
+ = tap
h = hammer
p = pull
n = natural harmonic
s = pinching harmonic (squeal)
* = tremolo pick
t = trill
b = bend
|-3-| = triplet

n number above the tab = play the first part then the first finishing part
			 play the first part a second time and then play the second finishing part
			 etc.

Intro

E --------------------------------------------- -------
B --------------------------------------------- -------
G -------4-----------4-----------4-----------4- -------
D ---4---4-------4---4-------4---4-------4---4- ---4---
A ---4---2-------4---2-------4---2-------4---2- ---4---
E -0-2-0-------0-2-0-------0-2-0-------0-2-0--- -0-2-0-

Riff 1

E -----------------------------------------------------------------------------
B -----------------------------------------------------------------------------
G -------4---3---4----------4---3---4----------4---3---4----------4---3---4----
D -------4---3---4----------4---3---4----------4---3---4----------4---3---4----
A -------2---1---2----------2---1---2----------2---1---2----------2---1---2----
E -00-00---0---0---00-00-00---0---0---00-00-00---0---0---00-00-00---0---0---00-

Riff 1A

E -------------------------------------------------------------------------
B -------------------------------------------------------------------------
G -------4---3---4----------4---3---4----------4---3---4-----10------------
D -------4---3---4----------4---3---4----------4---3---4-----10-10-9-8-6---
A -------2---1---2----------2---1---2----------2---1---2-----8 -10-9-8-6---
E -00-00---0---0---00-00-00---0---0---00-00-00---0---0---0-0----8 -7-6-4---

Riff 2

E ----------------------------------------------------------------------------------------
B ----------------------------------------------------------------------------------------
G -8-------8-------------8-------8-------------8-------8-------------8-------8-------9----
D -8-------8-------------8-------8-------------8-------8-------------8-------8-------9----
A -6-------6-------------6-------6-------------6-------6-------------6-------6-------7----
E ---55-55---55-55-55-55---55-55---55-55-55-55---55-55---55-55-55-55---55-55---55-55------

Fill 1

E -------------
B -------------
G ----4--3--4--
D -2--4--3--4--
A -2--2--1--2--
E -0-----------

Riff 3

E --------------------------------------------------------------
B --------------------------------------------------------------
G ------------------------------------------------------5---8-7-
D -------------3--------------3--------------3--0-3-2---3---6-5-
A -------------3--------------3--------------3--------3---3-----
E -0-2-5-0-3-0-1--0-2-5-0-3-0-1--0-2-5-0-3-0-1------------------

Riff 3A

E -------------------------------------------------------
B -------------------------------------------------------
G ----------------------------------------------4--------
D -------------3--------------3--------------3--2--------
A -------------3--------------3--------------3-----------
E -0-2-5-0-3-0-1--0-2-5-0-3-0-1--0-2-5-0-3-0-1-----------

Riff 3B

E --------------------------------------------------------------
B --------------------------------------------------------------
G ------------------------------------------------------5---8-7-
D -------------3--------------3--------------3----------3---6-5-
A -------------3--------------3--------------3------------3-----
E -0-2-5-0-3-0-1--0-2-5-0-3-0-1--0-2-5-0-3-0-1-0-2-3-0----------

Riff 4

E ------------------------------------
B ------------------------------------
G --------------------12---10---13-12-
D -------------6-5----12---10---13-12-
A -------------6-5----10---8 ---11-10-
E -0-0-0-0-0-0-4-3--0----0----8-------

Riff 5

E ---------------------------
B ---------------------------
G ---------------10----13-12-
D -2------6-5----10-10-13-12-
A -2------6-5----8 -10-11-10-
E -0------4-3--0----8 -------

Fill 2

E -----------
B -----------
G -4------5--
D -4------5--
A -2------3--
E -----------

Fill 3

E ---------1---1-----------0---0---
B -----3-----3---3-----3-----3---3-
G ---2---2-----------2---2---------
D -0---------------0---------------
A ---------------------------------
E ---------------------------------

Fill 4

E ---------------
B ---------------
G ----4--3--4----
D -2--4--3--4--2-
A -2--2--1--2--2-
E -0-----------0-

Order

Intro x 1
Riff 1 x 1
Solo over Riff 2 x 2
Fill 1 x 1
Riff 2 x 2
Riff 1A x 1
Riff 3 x 2
Fill 1 x 1
Riff 2 x 2
Riff 1A x 1
Riff 3 x 1
Riff 3A x 1
Riff 4 x 6
Fill 2 x 1
Solo over Riff 2 x 1
Riff 5 x 1
Solo over Riff 2 x 1
Riff 5 x 1
Solo over Riff 2 x 1
Riff 5 x 1
Solo over Riff 2 x 1
Riff 5 x 1
Riff 2 x 2
Fill 3 x 1
Riff 2 x 2
Riff 1A x 1
Riff 3 x 2
Fill 1 x 1
Riff 2 x 2
Riff 1A x 1
Riff 3B x 4
Fill 4 x 1

Tabbed by Radiohater 2003


Overkill albums
2003 Kill Box 13
1999 Necroshine
1997 From the Underground and Below
1996 The Killing Kind
1994 W.F.O.
1993 I Hear Black
1991 Horrorscope
1989 The Years of Decay
1988 Under the Influence
1987 Taking Over
1985 Feel the Fire
Taking Over tabs
01Deny the Cross tabbass tab
02Wrecking Crew tabbass tab
03Fear His Name tabbass tab
04Use Your Head tabbass tab
05Fatal If Swallowed tabbass tab
06Powersurge tabbass tab
07In Union We Stand tabbass tab
08Electro-Violence tabbass tab

 

1