Search tabs:
Browse artists: 0-9 | A | B | C | D | E | F | G | H | I | J | K | L | M | N | O | P | Q | R | S | T | U | V | W | X | Y | Z
/ Overkill / Taking Over (1987) / Fatal If Swallowed guitar tab

OVERKILL - FATAL IF SWALLOWED
(Taking Over, 1987)

Key
= after note = vibrato
^ after note = heavy vibrato
\\ = slide down
/ = slide up
+ = tap
h = hammer
p = pull
n = natural harmonic
s = pinching harmonic (squeal)
* = tremolo pick
t = trill
b = bend
|-3-| = triplet

n number above the tab = play the first part then the first finishing part
			 play the first part a second time and then play the second finishing part
			 etc.

Riff 1

E ------------------------------------------------------------------------
B ------------------------------------------------------------------------
G -9--------------7--10----------------9--------------7-------------------
D -9--------------7--10----------------9--------------7--8----------------
A -7--------------5--8 ----------------7--------------5--8----------------
E -------------------------------------------------------6----------------

Riff 2

E -----------------
B -----------------
G -----------------
D -7-5-2-5-4-2-2-4-
A -7-5-2-5-4-2-2-4-
E -5-3-0-3-2-0-0-2-

Riff 2A

E -------------------
B -------------------
G -------------------
D -7-5-2-5-4-2-2-5-2-
A -7-5-2-5-4-2-2-5-2-
E -5-3-0-3-2-0-0-3-0-

Riff 3

E ---------------------------------------------------------------------------------------------
B ---------------------------------------------------------------------------------------------
G -9----7--9----7--9--7--9----7--10----------------9----7--9----7--9--7--9----7----------------
D -9----7--9----7--9--7--9----7--10----10--10--10--9----7--9----7--9--7--9----7--8----5--5--5--
A -7----5--7----5--7--5--7----5--8 ----10--10--10--7----5--7----5--7--5--7----5--8----5--5--5--
E -------------------------------------8 --8 --8 --------------------------------6----3--3--3--

Riff 4

E -----------------------------------------------------------------------------------------------------
B -----------------------------------------------------------------------------------------------------
G -9--7-9--7-9--10----9--7--9--7-9--7-9--10----9--7--9--7-9--7-9--10----9--7--10---9---7---------------
D -9--7-9--7-9--10----9--7--9--7-9--7-9--10----9--7--9--7-9--7-9--10----9--7--10---9---7--10---9---10--
A -7--5-7--5-7--8 ----7--5--7--5-7--5-7--8 ----7--5--7--5-7--5-7--8 ----7--5--8 ---7---5--10---9---10--
E ----------------------------------------------------------------------------------------8 ---7---8 --

Fill 1

E --------------------
B --------------------
G -9------9--9--------
D -9------9--9--------
A -7------7--7--------
E --------------------

Riff 5

E ---------------------------------------------------------------------------------------------------
B ---------------------------------------------------------------------------------------------------
G -9---9---9----9----------12---12---12----12----------7---7---7----7--------------------------------
D -9---9---9----9----------12---12---12----12----------7---7---7----7--------------------------------
A -7---7---7----7----------10---10---10----10----------5---5---5----5--------------------------------
E -----------------0-0-0-0---------------------0-0-0-0-----------------0-0-0-0-6---5---3--8---6---8--

E -------------------------------------------------------------------------------------------------
B -------------------------------------------------------------------------------------------------
G -9---9---9----9----------12---12---12----12----------7---7---7--7---7---7------------------------
D -9---9---9----9----------12---12---12----12----------7---7---7--7---7---7------------------------
A -7---7---7----7----------10---10---10----10----------5---5---5--5---5---5------------------------
E -----------------0-0-0-0---------------------0-0-0-0-----------------------6---5---3--8---6---5--

Fill 2

E --------------------
B --------------------
G --------------------
D -8------8--8--------
A -8------8--8--------
E -6------6--6--------

Fill 2A

E -----------------------------------------
B -----------------------------------------
G -----------------------------------------
D -8------8--8------8--8------8--8------8--
A -8------8--8------8--8------8--8------8--
E -6------6--6------6--6------6--6------6--

Riff 6

E ------------------------------------------------------------------------------------------------------------
B ------------------------------------------------------------------------------------------------------------
G --------------------------------------------------------------------------------------------------5----5----
D --------------------------------------------------------------------------------------------------5----5----
A --------------------------------------------------------------------------------------------------3----3----
E -2--2-2-2--2-2-2--2-2-2--2-2-2--2-2-2--2-2-2--2-2-0--3--2--2-2-2--2-2-2--2-2-2--2-2-2--2-2-2--2-2-----------

Riff 6A

E ----------------------------------------------------------------------------------------------------------
B ----------------------------------------------------------------------------------------------------------
G ------------------------------------------------------------------------------------------------5----5----
D ------------------------------------------------------------------------------------------------5----5----
A ------------------------------------------------------------------------------------------------3----3----
E -2--2-2-2--2-2-2--2-2-0--3--2--2-2-2--2-2-2--2-2-0--3--2--2-2-2--2-2-2--2-2-0--3--2--2-2-2--2-0-----------

Riff 6B

E ----------------------------------------------------------------------------------------------------------
B ----------------------------------------------------------------------------------------------------------
G ------------------------------------------------------------------------------------------------6----6----
D ------------------------------------------------------------------------------------------------6----6----
A ------------------------------------------------------------------------------------------------4----4----
E -4--4-4-4--4-4-4--4-4-2--5--4--4-4-4--4-4-4--4-4-2--5--4--4-4-4--4-4-4--4-4-2--5--4--4-4-4--4-4-----------

E ----------------------------------------------------------------------------------------------------------
B ----------------------------------------------------------------------------------------------------------
G ------------------------------------------------------------------------------------------------6----7----
D ------------------------------------------------------------------------------------------------6----7----
A ------------------------------------------------------------------------------------------------4----5----
E -4--4-4-4--4-4-4--4-4-2--5--4--4-4-4--4-4-4--4-4-2--5--4--4-4-4--4-4-4--4-4-2--5--4--4-4-4--4-4-----------

Riff 6C

E ----------------------------------------------------------------------------------------------------------
B ----------------------------------------------------------------------------------------------------------
G ------------------------------------------------------------------------------------------------5----5----
D ------------------------------------------------------------------------------------------------5----5----
A ------------------------------------------------------------------------------------------------3----3----
E -2--2-2-2--2-2-2--2-2-0--3--2--2-2-2--2-2-2--2-2-0--3--2--2-2-2--2-2-2--2-2-0--3--2--2-2-2--2-0-----------

E ----------------------------------------------------------------------------------------------------------
B ----------------------------------------------------------------------------------------------------------
G ------------------------------------------------------------------------------------------------5----7----
D ------------------------------------------------------------------------------------------------5----7----
A ------------------------------------------------------------------------------------------------3----5----
E -2--2-2-2--2-2-2--2-2-0--3--2--2-2-2--2-2-2--2-2-0--3--2--2-2-2--2-2-2--2-2-0--3--2--2-2-2--2-0-----------

Riff 7

E -----------------------------------------------------------------------------------
B -----------------------------------------------------------------------------------
G -----------------------------------------------------------------7--5--7--5--4--5--
D -2----------4----------5----------7--5--7--2----------4----------7--5--7--5--4--5--
A -2----------4----------5----------7--5--7--2----------4----------5--3--5--3--2--3--
E -0--0-0-0-0-2--0-0-0-0-3--0-0-0-0-5--3--5--0--0-0-0-0-2--0-0-0-0-------------------

Riff 7A

E -----------------------------------------------------------
B -----------------------------------------------------------
G -----------------------9--7--9--7--5--7--5--4--5--4--2-----
D -2----------4----------9--7--9--7--5--7--5--4--5--4--2--5--
A -2----------4----------7--5--7--5--3--5--3--2--3--2--0--5--
E -0--0-0-0-0-2--0-0-0-0----------------------------------3--

Riff 7B

E -----------------------------------------------------------------------------------------------------
B -----------------------------------------------------------------------------------------------------
G -----------------------------------------------------------------7--5--7--5--4--5--9--7--5--7--5--4--
D -2----------4----------5----------7--5--7--2----------4----------7--5--7--5--4--5--9--7--5--7--5--4--
A -2----------4----------5----------7--5--7--2----------4----------5--3--5--3--2--3--7--5--3--5--3--2--
E -0--0-0-0-0-2--0-0-0-0-3--0-0-0-0-5--3--5--0--0-0-0-0-2--0-0-0-0-------------------------------------

Riff 8

E ------------------------------------------- --- ---------------
B ------------------------------------------- --- ---------------
G ------------------------------------------- -7- -------------9-
D -8------8--8------8--8------8--8------8--2- -7- -------------9-
A -8------8--8------8--8------8--8------8--2- -5- -------------7-
E -6------6--6------6--6------6--6------6--0- -5- -6-5-3-8-6-5---

Order

Riff 1 x 2
Riff 2 x 7
Riff 2A x 1
Riff 3 x 3
Riff 4 x 4
Fill 1 x 1
Riff 4 x 4
Riff 5 x 1
Riff 3 x 2
Fill 2 x 1
Riff 4 x 4
Riff 5 x 1
Riff 3 x 2
Fill 2A x 1
Riff 6 x 2
Riff 6A x 2
Solo over Riff 6B x 1
Solo over Riff 6C x 1
Riff 7 x 2
Riff 7A x 1
Riff 7 x 2
Riff 7B x 1
Riff 4 x 8
Riff 5 x 1
Riff 4 x 2
Riff 8 x 1

Tabbed by Radiohater 2003


Overkill albums
2003 Kill Box 13
1999 Necroshine
1997 From the Underground and Below
1996 The Killing Kind
1994 W.F.O.
1993 I Hear Black
1991 Horrorscope
1989 The Years of Decay
1988 Under the Influence
1987 Taking Over
1985 Feel the Fire
Taking Over tabs
01Deny the Cross tabbass tab
02Wrecking Crew tabbass tab
03Fear His Name tabbass tab
04Use Your Head tabbass tab
05Fatal If Swallowed tabbass tab
06Powersurge tabbass tab
07In Union We Stand tabbass tab
08Electro-Violence tabbass tab

 

1