Search tabs:
Browse artists: 0-9 | A | B | C | D | E | F | G | H | I | J | K | L | M | N | O | P | Q | R | S | T | U | V | W | X | Y | Z
/ Overkill / Taking Over (1987) / Fear His Name guitar tab

redhurley182@hotmail.com
Dustin Ruther


                                Fear His Name
                                  Overkill


E||---------------------------------------|
B||---------------------------------------|
G||*--------------------------------------|
D||*-----------5--4--2--4--2-----2--------|
A||---------------------------5-----5--3--|
E||---0--0--0-----------------------------|


                                     2x
-------------------------------------||--------------------------------------|
-------------------------------------||--------------------------------------|
-----------------------------2~-----*||--------------------------------------|
-----------5--4--2-----2--5---------*||-----------5--4--2--4--2-----2--------|
--------------------5----------------||--------------------------5-----5--3--|
--0--0--0----------------------------||--0--0--0-----------------------------|



------------------------------------|--------------------------------------|
------------------------------------|--------------------------------------|
-----------------------------2~-----|--------------------------------------|
-----------5--4--2-----2--5---------|-----------5--4--2--4--2-----2--------|
--------------------5---------------|--------------------------5-----5--3--|
--0--0--0---------------------------|--0--0--0-----------------------------|



------------------------------------|--------------------------------------|
------------------------------------|--------------------------------------|
-----------------------------2~-----|--------------------------------------|
-----------5--4--2-----2--5---------|-----------5--4--2--4--2-----2--------|
--------------------5---------------|--------------------------5-----5--3--|
--0--0--0---------------------------|--0--0--0-----------------------------|



------------------------------------|--------------------------------------|
------------------------------------|--------------------------------------|
-----------------------------2------|--------------------------------------|
-----------5--4--2-----2--5---------|-----------5--4--2--4--2-----2--------|
--------------------5---------------|--------------------------5-----5--3--|
--0--0--0---------------------------|--0--0--0-----------------------------|



------------------------------------|--------------------------------------|
------------------------------------|--------------------------------------|
-----------------------------4~-----|--------------------------------------|
-----------5--4--2-----2--5---------|-----------5--4--2--4--2-----2--------|
--------------------5---------------|--------------------------5-----5--3--|
--0--0--0---------------------------|--0--0--0-----------------------------|



------------------------------------|--------------------------------------|
------------------------------------|--------------------------------------|
------------------------------------|--------------------------------------|
-----------5--4--2-----2------------|-----------9-----------------9--------|
--------------------5-----5--3~-----|-----------7-----------------7--------|
--0--0--0---------------------------|--0--0--0-----0--0--0--0--0-----0--0--|



----------------------------------|--------------------------------------|
----------------------------------|--------------------------------------|
----------------------------------|--------------------------------------|
-----------9----------------------|-----------9-----------------9--------|
-----------7--------4------5------|-----------7-----------------7--------|
--0--0--0-----0--0--2------3------|--0--0--0-----0--0--0--0--0-----0--0--|



------------------------------------|--------------------------------------|
------------------------------------|--------------------------------------|
-----------------------------2------|--------------------------------------|
-----------9--------5--4------------|-----------9-----------------9--------|
-----------7--------------5---------|-----------7-----------------7--------|
--0--0--0-----0--0------------------|--0--0--0-----0--0--0--0--0-----0--0--|



----------------------------------|--------------------------------------|
----------------------------------|--------------------------------------|
----------------------------------|--------------------------------------|
-----------9----------------------|-----------9-----------------9--------|
-----------7--------4------5------|-----------7-----------------7--------|
--0--0--0-----0--0--2------3------|--0--0--0-----0--0--0--0--0-----0--0--|



----------------------------------------|
--------------------------------10------|
--------------------12--11------2-------|
-----------9--------5---4---12----------|
-----------7----------------5-----------|
--0--0--0-----0--0----------------------|



|---------------------------------------|----------------------------------|
|---------------------------------------|----------------------------------|
|*--------------------------------------|----------------------------------|
|*-----------9-----------------9--------|-----------9----------------------|
|------------7-----------------7--------|-----------7--------4------5------|
|---0--0--0-----0--0--0--0--0-----0--0--|--0--0--0-----0--0--2------3------|



--------------------------------------|
--------------------------------------|
--------------------------------------|
-----------9-----------------9--------|
-----------7-----------------7--------|
--0--0--0-----0--0--0--0--0-----0--0--|



-----------------------------------------||
--------------------------------10-------||
--------------------12--11------2-------*||
-----------9--------5---4---12----------*||
-----------7----------------5------------||
--0--0--0-----0--0-----------------------||



---------------------------------------|---------------------------------|
---------------------------------------|---------------------------------|
*--------------------------------------|---------------------------------|
*--------------------------------------|---------------------0--------0--|
---------------------------------------|--5---------------2--------0-----|
---3--3--3--3--3--3--3--3--3--3--3--3--|--3------------3--------2--------|



-----------------------------------|-------------------------------------||
-----------------------------------|-------------------------------------||
-----------------------------------|------------------------------------*||
-----------9---------------11------|-----------12---------------11------*||
-----------7---------------9-------|-----------10---------------9--------||
--0--0--0---------0--0--0----------|--0--0--0----------0--0--0-----------||



-----------------------------------|------------------------------------|
-----------------------------------|------------------------------------|
-----------------------------------|------------------------------------|
-----------9---------------11------|-----------12---------------11------|
-----------7---------------9-------|-----------10---------------9-------|
--0--0--0---------0--0--0----------|--0--0--0----------0--0--0----------|



|---------------------------------------|----------------------------------|
|---------------------------------------|----------------------------------|
|*--------------------------------------|----------------------------------|
|*-----------9-----------------9--------|-----------9----------------------|
|------------7-----------------7--------|-----------7--------4------5------|
|---0--0--0-----0--0--0--0--0-----0--0--|--0--0--0-----0--0--2------3------|



--------------------------------------|
--------------------------------------|
--------------------------------------|
-----------9-----------------9--------|
-----------7-----------------7--------|
--0--0--0-----0--0--0--0--0-----0--0--|



-----------------------------------------||
--------------------------------10-------||
--------------------12--11------2-------*||
-----------9--------5---4---12----------*||
-----------7----------------5------------||
--0--0--0-----0--0-----------------------||



---------------------------------------|---------------------------------|
---------------------------------------|---------------------------------|
*--------------------------------------|---------------------------------|
*--------------------------------------|---------------------0--------0--|
---------------------------------------|--5---------------2--------0-----|
---3--3--3--3--3--3--3--3--3--3--3--3--|--3------------3--------2--------|



-----------------------------------|-------------------------------------||
-----------------------------------|-------------------------------------||
-----------------------------------|------------------------------------*||
-----------9---------------11------|-----------12---------------11------*||
-----------7---------------9-------|-----------10---------------9--------||
--0--0--0---------0--0--0----------|--0--0--0----------0--0--0-----------||



----------------------|----------------------|-------------------------------|
----------------------|----------------------|-------------------------------|
----------------------|----------------------|-------------------------------|
--9--------9----9--9--|--9----9--9--9--------|--7/-9--9--9--9--9--9----11----|
--7--------7----7--7--|--7----7--7--7--------|--5/-7--7--7--7--7--7----9-----|
--0--------0----0--0--|--0----0--0--0--------|-------------------------------|



--------------------------------------|------------------------------|
--------------------------------------|------------------------------|
--------------------------------------|------------------------------|
--12--12--12--12--12--12--12----11----|--7/-9--9--9--9--9--9----7----|
--10--10--10--10--10--10--10----9-----|--5/-7--7--7--7--7--7----5----|
--------------------------------------|------------------------------|



------------------------------|-------------------------------|
------------------------------|-------------------------------|
------------------------------|-------------------------------|
--5--5--5--5--5--5--5----4----|--7/-9--9--9--9--9--9----11----|
--3--3--3--3--3--3--3----2----|--5/-7--7--7--7--7--7----9-----|
------------------------------|-------------------------------|



--------------------------------------|------------------------------|
--------------------------------------|------------------------------|
--------------------------------------|------------------------------|
--12--12--12--12--12--12--12----11----|--7/-9--9--9--9--9--9----7----|
--10--10--10--10--10--10--10----9-----|--5/-7--7--7--7--7--7----5----|
--------------------------------------|------------------------------|



------------------------------|-------------------|-------------------|
------------------------------|-------------------|-------------------|
------------------------------|-------------------|-------------------|
--5--5--5--5--5--5--5----7----|--9----------------|-------------------|
--3--3--3--3--3--3--3----5----|--7----------------|--5----------------|
------------------------------|-------------------|--3----------------|



-------------------|---------------------------|-------------------|
-------------------|---------------------------|-------------------|
-------------------|---------------------------|-------------------|
--5----------------|--4---------5----4---------|--2----------------|
--3----------------|--2------2------------5----|--0----------------|
-------------------|---------------------------|-------------------|



--------------------|-------------------|------------------|
--------------------|-------------------|------------------|
--------------------|-------------------|------------------|
---------------7----|--9----------------|------------------|
--5------------5----|--7----------------|------------------|
--3-----------------|--0----------------|------------------|



--------------------|-------------------|-------------------|
--------------------|-------------------|-------------------|
--------------------|-------------------|-------------------|
--9-----------------|-------------------|--5----------------|
--7------------4----|--5----------------|--3----------------|
--0------------2----|--3----------------|-------------------|



--------------------------|-------------------|--------------------|
--------------------------|-------------------|--------------------|
--------------------------|-------------------|--------------------|
--4--------5----4---------|--2----------------|---------------7----|
--2------------------5----|--0----------------|--5------------5----|
--------------------------|-------------------|--3-----------------|



--------------------------------------|--------------------------------------|
--------------------------------------|--------------------------------------|
--------------------------------------|--------------------------------------|
--------------------------------------|--------------------------------------|
--7--7--7--7--7--7--7--7--7--7--7--7--|--5h-7--7--7--7--7--7--7--7--7--7--7--|
--------------------------------------|--------------------------------------|



-------------------------------|--------------------------------------|
-------------------------------|--------------------------------------|
-------------------------------|--------------------------------------|
--7/-9--9--9--9--9--9----11----|--12--12--12--12--12--12--12----11----|
--5/-7--7--7--7--7--7----9-----|--10--10--10--10--10--10--10----9-----|
-------------------------------|--------------------------------------|



------------------------------|------------------------------|
------------------------------|------------------------------|
------------------------------|------------------------------|
--7/-9--9--9--9--9--9----7----|--5--5--5--5--5--5--5----4----|
--5/-7--7--7--7--7--7----5----|--3--3--3--3--3--3--3----2----|
------------------------------|------------------------------|



-------------------------------|--------------------------------------|
-------------------------------|--------------------------------------|
-------------------------------|--------------------------------------|
--7/-9--9--9--9--9--9----11----|--12--12--12--12--12--12--12----11----|
--5/-7--7--7--7--7--7----9-----|--10--10--10--10--10--10--10----9-----|
-------------------------------|--------------------------------------|



------------------------------|------------------------------||
------------------------------|------------------------------||
------------------------------|------------------------------||
--7/-9--9--9--9--9--9----7----|--5--5--5--5--5--5--5----7----||
--5/-7--7--7--7--7--7----5----|--3--3--3--3--3--3--3----5----||
------------------------------|------------------------------||


Overkill albums
2003 Kill Box 13
1999 Necroshine
1997 From the Underground and Below
1996 The Killing Kind
1994 W.F.O.
1993 I Hear Black
1991 Horrorscope
1989 The Years of Decay
1988 Under the Influence
1987 Taking Over
1985 Feel the Fire
Taking Over tabs
01Deny the Cross tabbass tab
02Wrecking Crew tabbass tab
03Fear His Name tabbass tab
04Use Your Head tabbass tab
05Fatal If Swallowed tabbass tab
06Powersurge tabbass tab
07In Union We Stand tabbass tab
08Electro-Violence tabbass tab

 

1