Search tabs:
Browse artists: 0-9 | A | B | C | D | E | F | G | H | I | J | K | L | M | N | O | P | Q | R | S | T | U | V | W | X | Y | Z
/ Overkill / Taking Over (1987) / In Union We Stand guitar tab

In Union We Stand
                                  Overkill


E||-------------------|--7----------------|
B||-------------------|--8----------------|
G||--9----------------|--9----------------|
D||--9----------------|--9----------------|
A||--7----------------|-------------------|
E||--0----------------|-------------------|


 These parts are played very fast...
----------------------------------------------------------------|
----------------------------------------------------------------|
----------------------------------------------------------------|
----------------------------------------------------------------|
--2-2-2-2-2-2-2-2-2-2-2-2-2-2-2-2-2-2-2-2-2-2-2-2-2-2-2-2-2-2-2-|
--0-0-0-0-0-0-0-0-0-0-0-0-0-0-0-0-0-0-0-0-0-0-0-0-0-0-0-0-0-0-0-|


   Verse                                                                  4x
|--------------------------------------------------------------------||
|--------------------------------------------------------------------||
|*------------------------------------------------------------------*||
|*------------------------------------------------------------------*||
|---2-2-2-2-2-2-2-2-2-2-2-2-2-2-2-2-2-2-2-2-2-2-2-2-2-2-2-2-2-2-2-2--||
|---0-0-0-0-0-0-0-0-0-0-0-0-0-0-0-0-0-0-0-0-0-0-0-0-0-0-0-0-0-0-0-0--||



-------------------3---|-------------------|
--3--------------3-3---|-------------------|
--0--------------2-----|-------------------|
--0--------------0-----|--2----------------|
------------4----------|--2----------------|
--3-------0-2----------|--0----------------|



|--------------------------------------------------------------------||
|--------------------------------------------------------------------||
|*------------------------------------------------------------------*||
|*------------------------------------------------------------------*||
|---2-2-2-2-2-2-2-2-2-2-2-2-2-2-2-2-2-2-2-2-2-2-2-2-2-2-2-2-2-2-2-2--||
|---0-0-0-0-0-0-0-0-0-0-0-0-0-0-0-0-0-0-0-0-0-0-0-0-0-0-0-0-0-0-0-0--||



-------------------3---|-----------------------|-----------------------------|
--3--------------3-3---|-----------------------|-----------------------------|
--0--------------2-----|-----------------------|-----------------------------|
--0--------------0-----|--2--------------------|--2------2----2----5--5------|
------------4----------|--2------5---5h7-------|--0--0-0-0--0-0--0-3--3------|
--3-------0-2----------|--0--------7-----------|-------------------------0-0-|



-----------------------------|-------3--------------3---|-------------------|
-------------------3--3------|-------3------------3-3---|-------------------|
-------------------2--2------|--0-----------------2-----|-------------------|
-------------------0--0------|--0-----------------0-----|-------------------|
--2------2----2--------------|----------------4---------|--2----------------|
--0--0-0-0--0-0--0-------0-0-|--3-------x-x-x-2---------|--0----------------|



-----------------------------|-----------------------------|
-----------------------------|-------------------3--3------|
-----------------------------|-------------------2--2------|
--2------2----2----5--5------|-------------------0--0------|
--0--0-0-0--0-0--0-3--3------|--2------2----2--------------|
-------------------------0-0-|--0--0-0-0--0-0--0-------0-0-|


                                              Chorus
-------3--------------3---|--------------------||----------------------------|
-------3------------3-3---|--------------------||----------------------------|
--0-----------------2-----|-----------------7--||*--9----9----9----7--7------|
--0-----------------0-----|-----------------7--||*--9----9----9----7--7------|
----------------4---------|--2--------------5--||---7----7----7----5--5------|
--3-------x-x-x-2---------|--0-----------------||-----------0----0-------0-0-|



-------------------------------------|--------------------------|
-------------------------------------|--------------------------|
--12--------12-----12-----14--14\\-7--|--9----9--------7-----5---|
--12--------12-----12-----14--14\\-7--|--9----9--------7-----5---|
------10-10-----10-----10-12--12\\-5--|--7----7--------5-----3---|
-------------------------------------|----------0-0-0-----0-----|



---------------------||
---------------------||
--9--------------7--*||
--9--------------7--*||
--7--------------5---||
--0------------------||


Overkill albums
2003 Kill Box 13
1999 Necroshine
1997 From the Underground and Below
1996 The Killing Kind
1994 W.F.O.
1993 I Hear Black
1991 Horrorscope
1989 The Years of Decay
1988 Under the Influence
1987 Taking Over
1985 Feel the Fire
Taking Over tabs
01Deny the Cross tabbass tab
02Wrecking Crew tabbass tab
03Fear His Name tabbass tab
04Use Your Head tabbass tab
05Fatal If Swallowed tabbass tab
06Powersurge tabbass tab
07In Union We Stand tabbass tab
08Electro-Violence tabbass tab

 

1