Search tabs:
Browse artists: 0-9 | A | B | C | D | E | F | G | H | I | J | K | L | M | N | O | P | Q | R | S | T | U | V | W | X | Y | Z
/ Overkill / Taking Over (1987) / Use Your Head guitar tab

Use Your Head
Overkill
Lead Guitar




E||-----------|--------------------------------|-------------------------------|
B||-----------|--------------------------------|-------------------------------|
G||-----------|--------------------------------|-------------------------------|
D||-----------|-------------------------5------|-------------------------------|
A||--4--------|--4-------7--------------3------|----------7----------------5---|
E||--2--------|--0h2-0-0-5--0-0-0h2-0-0----0-0-|--0h2-0-0-5--0-0-0h2-0-0-2-3---|



--------------------------------|-------------------------------|
--------------------------------|-------------------------------|
--------------------------------|-------------------------------|
-------------------------5------|-------------------------------|
--4-------7--------------3------|----------7----------------5---|
--0h2-0-0-5--0-0-0h2-0-0----0-0-|--0h2-0-0-5--0-0-0h2-0-0-2-3---|



|---------------------------------|--------------------------------||
|---------------------------------|--------------------------------||
|*--------------------------------|-------------------------------*||
|*-------------------------5------|-------------------------------*||
|---4-------7--------------3------|----------7----------------5----||
|---0h2-0-0-5--0-0-0h2-0-0----0-0-|--0h2-0-0-5--0-0-0h2-0-0-2-3----||



---------------------------------|--------------------------------||
---------------------------------|--------------------------------||
*--------------------------------|-------------------------------*||
*-------------------------5------|-------------------------------*||
---4-------7--------------3------|----------7--------------7\5----||
---0h2-0-0-5--0-0-0h2-0-0----0-0-|--0h2-0-0-5--0-0-0h2-0-0-5\3----||



---------------------------|--------------------------|
---------------------------|--------------------------|
*--------------------------|--------------------------|
*--------------------------|---------------------5----|
----------------------7----|---------------------3----|
---0--0-0-0--0--0--2--5----|--0--0-0-0--0--0--2-------|


                                                       2x
--------------------------|----------------------------||
--------------------------|----------------------------||
--------------------------|---------------------------*||
--------------------------|---------------------------*||
---------------------7----|---------------------7--5---||
--0--0-0-0--0--0--2--5----|--0--0-0-0--0--0--0--5--3---||



--------------------------|--------------------------|
--------------------------|--------------------------|
--------------------------|--------------------------|
--------------------------|---------------------5----|
---------------------7----|---------------------3----|
--0--0-0-0--0--0--2--5----|--0--0-0-0--0--0--2-------|



--------------------------|--------------------|-----------------------------|
--------------------------|--------------------|-----------------------------|
--------------------------|--------------------|-----------------------------|
--------------------------|--------------------|-----------------------------|
---------------------7----|--2-----------------|----------------------10--9--|
--0--0-0-0--0--0--2--5----|--0--------------8--|--8--7--8--10--9--10---------|



|---------------------------|--------------------------|
|---------------------------|--------------------------|
|*--------------------------|--------------------------|
|*--------------------------|--------------------10----|
|---------------------------|--------------------8-----|
|---0--0--0--0--0--0--0--0--|--0--0--0--0--0--0--------|



--------------------------|------------------------|--------------------------|
--------------------------|------------------------|--------------------------|
--------------------------|------------------------|--------------------------|
--------------------------|--------------5----7----|--------------------------|
--------------------------|--------------3----5----|--------------------------|
--0--0--0--0--0--0--0--0--|--0--0--0--0------------|--0--0--0--0--0--0--0--0--|



--------------------------|--------------------------|------------------------|
--------------------------|--------------------------|------------------------|
--------------------------|--------------------------|------------------------|
--------------------10----|--------------------------|--------------5----7----|
--------------------8-----|--------------------------|--------------3----5----|
--0--0--0--0--0--0--------|--0--0--0--0--0--0--0--0--|--0--0--0--0------------|



--------------------------|--------------------------------|
--------------------------|--------------------------------|
--------------------------|--------------------------------|
--------9\-7--------9\-7--|--------9\-7--------------10----|
--------7\-5--------7\-5--|--------7\-5--------------8-----|
--0--0--------0--0--------|--0--0--------0--0--0--0--------|



--------------------------|------------------------------|
--------------------------|------------------------------|
--------------------------|------------------------------|
--------9\-7--------9\-7--|--------9\-7--------5----7----|
--------7\-5--------7\-5--|--------7\-5--------3----5----|
--0--0--------0--0--------|--0--0--------0--0------------|



--------------------------|--------------------------------|
--------------------------|--------------------------------|
--------------------------|--------------------------------|
--------9\-7--------9\-7--|--------9\-7--------------10----|
--------7\-5--------7\-5--|--------7\-5--------------8-----|
--0--0--------0--0--------|--0--0--------0--0--0--0--------|



--------------------------|------------------------------|
--------------------------|------------------------------|
--------------------------|------------------------------|
--------9\-7--------9\-7--|--------9\-7--------5----7----|
--------7\-5--------7\-5--|--------7\-5--------3----5----|
--0--0--------0--0--------|--0--0--------0--0------------|



-----------------------------------|--------------------------|
-----------------------------------|--------------------------|
-----------------------------------|--------------------------|
--------10----9----------5----7----|--------------------------|
--------8-----7----------3----5----|---------------------7----|
--0--0-------------0--0------------|--0--0-0-0--0--0--2--5----|



--------------------------|--------------------------|
--------------------------|--------------------------|
--------------------------|--------------------------|
---------------------5----|--------------------------|
---------------------3----|---------------------7----|
--0--0-0-0--0--0--2-------|--0--0-0-0--0--0--2--5----|



---------------------------|--------------------------|
---------------------------|--------------------------|
---------------------------|--------------------------|
---------------------------|--------------------------|
---------------------7--5--|---------------------7----|
--0--0-0-0--0--0--0--5--3--|--0--0-0-0--0--0--2--5----|



--------------------------|--------------------------|
--------------------------|--------------------------|
--------------------------|--------------------------|
---------------------5----|--------------------------|
---------------------3----|---------------------7----|
--0--0-0-0--0--0--2-------|--0--0-0-0--0--0--2--5----|



---------------------------|------------------------------------------------|
---------------------------|------------------------------------------------|
---------------------------|------------------------------------------------|
---------------------------|--------9/-10-----9/-10-----9/-10-----9/-10-----|
---------------------7--5--|--------7/-8------7/-8------7/-8------7/-8------|
--0--0-0-0--0--0--0--5--3--|--0--0---------0---------0---------0---------0--|



----------------------------||-------------------------|
----------------------------||-------------------------|
---------------------------*||-------------------------|
--9/-10--12----9/-10--7----*||-------------------------|
--7/-8---10----7/-8---5-----||-----8\-7-----8\-7--5----|
----------------------------||--0--6\-5--0--6\-5--3----|



--------------------------|--------------------------|
--------------------------|--------------------------|
--------------------------|--------------------------|
--------------------------|--------------------------|
-----8\-7-----8\-7--4/-5--|-----8\-7-----8\-7--4/-5--|
--0--6\-5--0--6\-5--2/-3--|--0--6\-5--0--6\-5--2/-3--|



--------------------------|-------------------------|--------------------------|
--------------------------|-------------------------|--------------------------|
--------------------------|-------------------------|--------------------------|
--------------------------|--------------9----10\---|--------------------------|
-----8\-7-----8\-7--4/-5--|-----8\-7-----7----8\----|-----8\-7-----8\-7--4/-5--|
--0--6\-5--0--6\-5--2/-3--|--0--6\-5--0-------------|--0--6\-5--0--6\-5--2/-3--|



--------------------------|--------------------------|-------------------------|
--------------------------|--------------------------|-------------------------|
--------------------------|--------------------------|-------------------------|
-----------------------3--|--------------------------|--------------9----10----|
-----8\-7--------------1--|-----8\-7-----8\-7--4/-5--|-----8\-7-----7----8-----|
--0--6\-5--0--1--2--3-----|--0--6\-5--0--6\-5--2/-3--|--0--6\-5--0-------------|



-------------------|--------------------------|--------------------------|
-------------------|--------------------------|--------------------------|
-------------------|--------------------------|--------------------------|
--------9----10\---|--------------------------|-----------------------3--|
--------7----8\----|-----8\-7-----8\-7--4/-5--|-----8\-7--------------1--|
--0--0-------------|--0--6\-5--0--6\-5--2/-3--|--0--6\-5--0--1--2--3-----|



--------------|--------------------------|-------------------------|
--------------|--------------------------|-------------------------|
--------------|--------------------------|-------------------------|
-----------5--|--------------------------|--------------9----10\---|
-----------3--|-----8\-7-----8\-7--4/-5--|-----8\-7-----7----8\----|
--3--4--5-----|--0--6\-5--0--6\-5--2/-3--|--0--6\-5--0-------------|



-------------------|---------------------|-----------------------------|
-------------------|---------------------|-----------------------------|
-------------------|---------------------|-----------------------------|
--------9----10\---|--------9----10------|-----------------------------|
--------7----8\----|--------7----8-------|----------------------10--9--|
--0--0-------------|--0--0-----------0-0-|--8--7--8--10--9--10---------|



-------------------|--------------------------|--------------------|
-------------------|--------------------------|--------------------|
-------------------|---------9--12----11b-----|--11----------------|
--9----------------|--9--11--7--10----9b------|--9-----------------|
--7----------------|--7--9--------------------|--------------------|
-------------------|--------------------------|--------------------|



---------------------------|--------------------|----------12--15----14b-----|
---------10--13----12b-----|--12----------------|--12--14--10--13----12b-----|
--9--13--7---10----9b------|--9-----------------|--9---11--------------------|
--7--11--------------------|--------------------|----------------------------|
---------------------------|--------------------|----------------------------|
---------------------------|--------------------|----------------------------|



--14~-----14~-----14~---|----14~-----14----14----|
--12~-----12~-----12~---|----12~-----12----12----|
------------------------|------------------------|
------------------------|------------------------|
------------------------|------------------------|
------------------------|------------------------|



--14--15--17--14--15--17--14--15--|--17--14--15--17--14--15--17--14--|
--12--13--15--12--13--15--12--13--|--15--12--13--15--12--13--15--12--|
----------------------------------|----------------------------------|
----------------------------------|----------------------------------|
----------------------------------|----------------------------------|
----------------------------------|----------------------------------|



--19--14--17--14--15--14------15--|--14~---------------------|
--17--12--15--12--13--12--17--13--|--12~---15~---14~---12----|
--------------------------14------|--------12~---11~---------|
----------------------------------|--------------------14----|
----------------------------------|--------------------------|
----------------------------------|--------------------------|



--17-17-17-17-15-15-15-15-14-14-14-14-12-12-12-12-|
--------------------------------------------------|
--------------------------------------------------|
--------------------------------------------------|
--------------------------------------------------|
--------------------------------------------------|



--15-15-15-15-14-14-14-14-12-12-12-12-10-10-10-10-|
--------------------------------------------------|
--------------------------------------------------|
--------------------------------------------------|
--------------------------------------------------|
--------------------------------------------------|



--14-14-14-14-12--10--------------------|---------------------------------|
----------------------14----12----10----|---------------------------------|
----------------------------------------|---------------------------------|
----------------------------------------|--12----11----9------------------|
----------------------------------------|-------------------12--9-9-------|
----------------------------------------|---------------------------12\---|



-------------------|--------------------------|--------------------|
-------------------|--------------------------|--------------------|
-------------------|---------9--12----11b-----|--11----------------|
--9----------------|--9--11--7--10----9b------|--9-----------------|
--7----------------|--7--9--------------------|--------------------|
-------------------|--------------------------|--------------------|



---------------------------|--------------------|----------12--15----14b-----|
---------10--13----12b-----|--12~---------------|--12--14--10--13----12b-----|
--9--11--7---10----9b------|--9~----------------|--9---11--------------------|
--7--9---------------------|--------------------|----------------------------|
---------------------------|--------------------|----------------------------|
---------------------------|--------------------|----------------------------|



--14~-------------14/-|----------17--20----19b-----19~---|
--12~-------------12/-|--17--19--15--18----17b-----17~---|
----------------------|--14--16--------------------------|
----------------------|----------------------------------|
----------------------|----------------------------------|
----------------------|----------------------------------|



----19~-----19~-----19~-|------19----19----19~---|----19~-----19~-----19~-|
----17~-----17~-----17~-|------17----17----17~---|----17~-----17~-----17~-|
------------------------|------------------------|------------------------|
------------------------|------------------------|------------------------|
------------------------|------------------------|------------------------|
------------------------|------------------------|------------------------|



------19----19----19----|--19\-----------------------|------------------|
------17----17----17----|--17\-----------------------|------------------|
------------------------|----------------------------|------------------|
------------------------|----------------------------|------------------|
------------------------|----------------------------|------------------|
------------------------|----------------------------|------------------|



--------------------------|---------------------------|
--------------------------|---------------------------|
--------------------------|---------------------------|
--------------------------|---------------------------|
--x--x--x--x--x--x--x--x--|---------------------7--5--|
--------------------------|--0--0-0-0--0--0--0--5--3--|



--------------------------|--------------------------|
--------------------------|--------------------------|
--------------------------|--------------------------|
--------------------------|---------------------5----|
---------------------7----|---------------------3----|
--0--0-0-0--0--0--2--5----|--0--0-0-0--0--0--2-------|



--------------------------|---------------------------|
--------------------------|---------------------------|
--------------------------|---------------------------|
--------------------------|---------------------------|
---------------------7----|---------------------7--5--|
--0--0-0-0--0--0--2--5----|--0--0-0-0--0--0--0--5--3--|



--------------------------|--------------------------|
--------------------------|--------------------------|
--------------------------|--------------------------|
--------------------------|---------------------5----|
---------------------7----|---------------------3----|
--0--0-0-0--0--0--2--5----|--0--0-0-0--0--0--2-------|



--------------------------|---------------------------|------------------|
--------------------------|---------------------------|------------------|
--------------------------|---------------------------|------------------|
--------------------------|---------------------------|------------------|
---------------------7----|---------------------7--5--|------------------|
--0--0-0-0--0--0--2--5----|--0--0-0-0--0--0--0--5--3--|------------------|



------------------|------------------|--------------------------|
------------------|------------------|--------------------------|
------------------|------------------|--------------------------|
------------------|------------------|--9--9--9--9--9--9--9--9--|
------------------|------------------|--7--7--7--7--7--7--7--7--|
------------------|------------------|--0--0--0--0--0--0--0--0--|



--------------------------|----------------------------------||
--------------------------|----------------------------------||
--------------------------|----------------------------------||
--------7--------7--------|-----7--5-----4--4----4--4--------||
--3--2--5--3--2--5--2--3--|--2--5--3--0--2--2----2--2--------||
--1--0-----1--0-----0--1--|--0-------------------------------||


Overkill albums
2003 Kill Box 13
1999 Necroshine
1997 From the Underground and Below
1996 The Killing Kind
1994 W.F.O.
1993 I Hear Black
1991 Horrorscope
1989 The Years of Decay
1988 Under the Influence
1987 Taking Over
1985 Feel the Fire
Taking Over tabs
01Deny the Cross tabbass tab
02Wrecking Crew tabbass tab
03Fear His Name tabbass tab
04Use Your Head tabbass tab
05Fatal If Swallowed tabbass tab
06Powersurge tabbass tab
07In Union We Stand tabbass tab
08Electro-Violence tabbass tab

 

1