Search tabs:
Browse artists: 0-9 | A | B | C | D | E | F | G | H | I | J | K | L | M | N | O | P | Q | R | S | T | U | V | W | X | Y | Z
/ Overkill / Taking Over (1987) / Wrecking Crew guitar tab

OVERKILL - WRECKING CREW
(Taking Over, 1987)

Key
= after note = vibrato
^ after note = heavy vibrato
\\ = slide down
/ = slide up
+ = tap
h = hammer
p = pull
n = natural harmonic
s = pinching harmonic (squeal)
* = tremolo pick
t = trill
b = bend
|-3-| = triplet

n number above the tab = play the first part then the first finishing part
			 play the first part a second time and then play the second finishing part
			 etc.

Riff 1

E ------------------------------------------------------------------------------------------------------------------------
B ------------------------------------------------------------------------------------------------------------------------
G -9--9-9-----------------------9--9-9-----------------------9--9-9-----------------------3-2-----3-2-----3-2-----3-2-----
D -9--9-9---------------5-0-----9--9-9-----------------------9--9-9---------------5-0---------3-0-----3-0-----3-0-----3-0-
A -7--7-7---0-0-5-0-0-0-----5-0-7--7-7---0-0-2-0-3-0-3-0-----7--7-7---0-0-5-0-0-0-----5-0---------------------------------
E -------------------------------------------------------3-0--------------------------------------------------------------

Riff 1A

E ------------------------------------------------------------------------------------------------------------------------
B ------------------------------------------------------------------------------------------------------------------------
G -9--9-9-----------------------9--9-9-----------------------9--9-9-----------------------3-2-0-----------3-2-0-----------
D -9--9-9---------------5-0-----9--9-9-----------------------9--9-9---------------5-0-----------3-2-1-0---------3-2-1-0---
A -7--7-7---0-0-5-0-0-0-----5-0-7--7-7---0-0-2-0-3-0-3-0-----7--7-7---0-0-5-0-0-0-----5-0---------------3---------------3-
E -------------------------------------------------------3-0--------------------------------------------------------------

E ------------------------------
B ------------------------------
G ------------------------------
D -3-2-0-----------9-9-9-9-9----
A -------3-2-1-0---9-9-9-9-9----
E ---------------3-7-7-7-7-7----

Riff 2

E ------------------------------------------------------------
B ------------------------------------------------------------
G ---------9--------------9--------------9----------9------9--
D ---------9--------------9--------------9----------9------9--
A ---------7--------------7--------------7----------7------7--
E -0-0-0-0----0-0-0-0-0-0----0-0-0-0-0-0----0-0-0-0----0-0----

Riff 2A

E -------------------------------------------------------------------------------------------------
B -------------------------------------------------------------------------------------------------
G -7----------------5------------5---7----------9--------------9--------------9----------9------9--
D -7----------------5--------4---5---7----------9--------------9--------------9----------9------9--
A -5----------------3--------2---3---5----------7--------------7--------------7----------7------7--
E --------------------------------------0-0-0-0----0-0-0-0-0-0----0-0-0-0-0-0----0-0-0-0----0-0----

Riff 2B

E -------------------------------3-0-----3-0-----3-0-------------
B -----------------------------------3-0-----3-0-----3-0---------
G ---------9--------------9------------------------------2-0-----
D ---------9--------------9----------------------------------3-0-
A ---------7--------------7--------------------------------------
E -0-0-0-0----0-0-0-0-0-0----0-0---------------------------------

Riff 3

E ---------------------------------------------------------------------------------------
B ---------------------------------------------------------------------------------------
G -11--------11----------12--------12----------11--------11---12---14--14----------------
D -11-------------11-----12-------------12-----11--------11---12---14--14----------------
A -9 --------------------10--------------------9 --------9 ---10---12--12----------------
E ---------------------------------------------------------------------------------------

Riff 4

E ----------------------------------------------------------------------------------------------
B ----------------------------------------------------------------------------------------------
G ------------7---7---7-------------9---7---9-------------7---7---7-----------------------------
D -9---9---9--7---7---7--7---7---7--9---7---9--9---9---9--7---7---7--7---7---7------------------
A -9---9---9--5---5---5--7---7---7--7---5---7--9---9---9--5---5---5--7---7---7------------------
E -7---7---7-------------5---5---5-------------7---7---7-------------5---5---5--7-7-7-7-7-7-7-7-

Riff 4A

E -----------------------------------------------------------------------------------------
B -----------------------------------------------------------------------------------------
G ------------7---7---7-------------9---7---9-------------7---7---7------------------------
D -9---9---9--7---7---7--7---7---7--9---7---9--9---9---9--7---7---7--7---7---7--9---9---9--
A -9---9---9--5---5---5--7---7---7--7---5---7--9---9---9--5---5---5--7---7---7--9---9---9--
E -7---7---7-------------5---5---5-------------7---7---7-------------5---5---5--7---7---7--

Riff 4B

E --------------------------------------------------------------------------------
B --------------------------------------------------------------------------------
G ------------7---7---7-------------9---7---9-------------7---7---7---------------
D -9---9---9--7---7---7--7---7---7--9---7---9--9---9---9--7---7---7--7---7---7--9-
A -9---9---9--5---5---5--7---7---7--7---5---7--9---9---9--5---5---5--7---7---7--9-
E -7---7---7-------------5---5---5-------------7---7---7-------------5---5---5--7-

Riff 4C

E ------------------------------------------------------------------------------
B ------------------------------------------------------------------------------
G ------------7---7---7-------------9---7---9-------------7---7---7-------------
D -9---9---9--7---7---7--7---7---7--9---7---9--9---9---9--7---7---7--7---7---7--
A -9---9---9--5---5---5--7---7---7--7---5---7--9---9---9--5---5---5--7---7---7--
E -7---7---7-------------5---5---5-------------7---7---7-------------5---5---5--

Riff 5

E ------------------------------------------------------------------------------------------------
B ------------------------------------------------------------------------------------------------
G -6---6---6--9---9---9--4---4---4--11---9---11--6---6---6--9---9---9--4---4---4------------------
D -6---6---6--9---9---9--4---4---4--11---9---11--6---6---6--9---9---9--4---4---4------------------
A -4---4---4--7---7---7--2---2---2--9 ---7---9 --4---4---4--7---7---7--2---2---2--4-4-4-4-4-2-0-0-
E ------------------------------------------------------------------------------------------------

Riff 5A

E --------------------------------------------------------------------------------
B --------------------------------------------------------------------------------
G -6---6---6--9---9---9--4---4---4--11---9---11--6---6---6--9---9---9--4---4---4--
D -6---6---6--9---9---9--4---4---4--11---9---11--6---6---6--9---9---9--4---4---4--
A -4---4---4--7---7---7--2---2---2--9 ---7---9 --4---4---4--7---7---7--2---2---2--
E --------------------------------------------------------------------------------

Riff 6

E -------------------------------------------------------------------------------------------------------------
B -------------------------------------------------------------------------------------------------------------
G -9---9---9------------------7---7---7------------------5---5---5------------------7---7---7------------------
D -9---9---9------------------7---7---7------------------5---5---5------------------7---7---7------------------
A -7---7---7--7-7-7-7-7-7-7-7-5---5---5--5-5-5-5-5-5-5-5-3---3---3--3-3-3-3-3-3-3-3-5---5---5--5-5-5-5-5-5-5-5-
E -------------------------------------------------------------------------------------------------------------

E --------------------------------------------------------------------------------------------------------
B --------------------------------------------------------------------------------------------------------
G -9---9---9------------------7---7---7------------------5---5---5----------------------------------------
D -9---9---9------------------7---7---7------------------5---5---5----------------------------------------
A -7---7---7--7-7-7-7-7-7-7-7-5---5---5--5-5-5-5-5-5-5-5-3---3---3--3-3-3-3-3-3-3-3-5---4---0--2---3---5--
E --------------------------------------------------------------------------------------------------------

Riff 6A

E -----------------------------------------------------------------------------
B -----------------------------------------------------------------------------
G -9---9-------------7---7-------------5---5-----------------------------------
D -9---9-------------7---7-------------5---5-----------------------------------
A -7---7-------------5---5-------------3---3-------------5---4---0--2---3---5--
E -----------------------------------------------------------------------------

Order

Riff 1 x 1
Riff 2 x 8
Riff 2A x 4
Riff 3 x 1
Riff 4 x 1
Riff 4A x 1
Riff 2 x 1
Riff 2B x 1
Riff 2 x 1
Riff 2A x 4
Riff 3 x 1
Riff 4 x 2
Riff 5 x 1
Riff 5A x 1
Riff 1 x 2
Solo over Riff 6 x 2
Solo over Riff 6A x 2
Riff 2 x 4
Riff 2A x 4
Riff 3 x 1
Riff 4B x 2
Riff 4C x 1
Riff 1A x 1

Tabbed by Radiohater 2003


Overkill albums
2003 Kill Box 13
1999 Necroshine
1997 From the Underground and Below
1996 The Killing Kind
1994 W.F.O.
1993 I Hear Black
1991 Horrorscope
1989 The Years of Decay
1988 Under the Influence
1987 Taking Over
1985 Feel the Fire
Taking Over tabs
01Deny the Cross tabbass tab
02Wrecking Crew tabbass tab
03Fear His Name tabbass tab
04Use Your Head tabbass tab
05Fatal If Swallowed tabbass tab
06Powersurge tabbass tab
07In Union We Stand tabbass tab
08Electro-Violence tabbass tab

 

1