Search tabs:
Browse artists: 0-9 | A | B | C | D | E | F | G | H | I | J | K | L | M | N | O | P | Q | R | S | T | U | V | W | X | Y | Z
/ Overkill / Under the Influence (1988) / Brainfade guitar tab

OVERKILL - BRAINFADE
(Under The Influence, 1988)

Key
= after note = vibrato
^ after note = heavy vibrato
\\ = slide down
/ = slide up
+ = tap
h = hammer
p = pull
n = natural harmonic
s = pinching harmonic (squeal)
* = tremolo pick
t = trill
b = bend
|-3-| = triplet

n number above the tab = play the first part then the first finishing part
			 play the first part a second time and then play the second finishing part
			 etc.

Riff 1

E ---------------------------
B ---------------------------
G -----4-3---------5-4-------
D -2---4-3---5-4---5-4-------
A -2---2-1---5-4---3-2---0-2-
E -0---------3-2-------3-----

Riff 1A

E ---------------------------
B ---------------------------
G -----4-3---------5-4-0-2-4-
D -2---------5-4-------------
A ---------------------------
E ---------------------------

Riff 1B

E ----------------------------
B ----------------------------
G -----9-8----------8-7-------
D -3---9-8---10-9---8-7-8-----
A -5---7-6---10-9---6-5-8-3-5-
E -3---------8 -7-------6-----

Riff 1C

E ----------------------------
B ----------------------------
G -----9-8----------8-7---5-7-
D -5---------10-9-------8-----
A ----------------------------
E ----------------------------

Riff 1D

E ------------------------------------
B ------------------------------------
G ------------------7-8---7---6---5---
D -5---9-8---10-9-------9---8---7---6-
A -5---7-6---10-9---------------------
E -3---------8 -7---------------------

Riff 1E

E ------------------------------------
B ------------------------------------
G -----9-8----------7-8---7---6---5---
D -5---------10-9-------9---8---7---6-
A ------------------------------------
E ------------------------------------

Riff 1F

E ---------------------------------------
B ---------------------------------------
G -----9-8----------7-8-------7-8--------
D -5---9-8---10-9---7-8-------7-8--------
A -5---7-6---10-9---5-6-------5-6--------
E -3---------8 -7------------------------

Riff 1G

E ---------------------------------------------------------------------------
B ---------------------------------------------------------------------------
G ------------------7-8---7---6---5-7-8---7---6---5-7-8---7---6---5---6----7-
D -5---9-8---10-9-------9---8---7-------9---8---7-------9---8---7---6-6----7-
A -5---7-6---10-9-----------------------------------------------------4----5-
E -3---------8 -7-----------------------------------------------------4----5-

Riff 1H

E ---------------------------------------------------------------------------
B ---------------------------------------------------------------------------
G -----9-8----------7-8---7---6---5-7-8---7---6---5-7-8---7---6---5---6----7-
D -5---------10-9-------9---8---7-------9---8---7-------9---8---7---6-6----7-
A --------------------------------------------------------------------4----5-
E --------------------------------------------------------------------4----5-

Riff 2

E ---------------------------------
B ---------------------------------
G -------9-8-----8-7-----7-6---3-5-
D -------9-8-----8-7-----7-6---3-5-
A -------7-6-----6-5-----5-4---1-3-
E -3-3-3-----3-3-----3-3-----3-----

Riff 3

E -----------------------------------------------------------------
B -----------------------------------------------------------------
G -------------------------------------------------7-7-7-7-7-------
D -------------------------------------------------7-7-7-7-7-------
A -------3-2---0-2-------3-2---0-2-------3-2---0-2-5-5-5-5-5-3-2-0-
E -0-0-0-----0-----1-1-1-----0-----2-2-2-----0---------------------

Riff 3A

E ----------------------------------------------------------------------
B ----------------------------------------------------------------------
G -------------------------------------------------10-10-10-10-10-9-7---
D -------------------------------------------------10-10-10-10-10-9-7-8-
A -------6-5---3-5-------6-5---3-5-------6-5---3-5-8 -8 -8 -8 -8 -7-5-8-
E -3-3-3-----6-----4-4-4-----6-----5-5-5-----6------------------------6-

Riff 3B

E -------------------------------------------------------------------------------------------------
B -------------------------------------------------------------------------------------------------
G -------------------------------------------------10-10-10-10-10-10-10-10-11-11-11-11-11-12-12-14-
D -------------------------------------------------10-10-10-10-10-10-10-10-11-11-11-11-11-12-12-14-
A -------6-5---3-5-------6-5---3-5-------6-5---3-5-8 -8 -8 -8 -8 -8 -8 -8 -9 -9 -9 -9 -9 -10-10-12-
E -3-3-3-----6-----4-4-4-----6-----5-5-5-----6-----------------------------------------------------

Riff 4

E --------------------------------------------------------------------
B --------------------------------------------------------------------
G -----9---10-9-7-9--------5-4---------9---7-9-10-9-------------12-11-
D -----9---10-9-7-9--------5-4-3-4-----9---7-9-10-9--------10-9-12-11-
A -----7---8 -7-5-7--------3-2-3-4-----7---5-7-8 -7--------10-9-10-9 -
E -0-0---0-----------0-0-0-----1-2-0-0---0-----------0-0-0-8 -7-------

Riff 4A

E -------------------------------------------------------------------------------------
B -------------------------------------------------------------------------------------
G -----9---10-9-7-9--------5-4---------9---7-9-10-9-------------12-11-10-9-----8-7-----
D -----9---10-9-7-9--------5-4-3-4-----9---7-9-10-9--------10-9-12-11-10-9-9-8-8-7-8-7-
A -----7---8 -7-5-7--------3-2-3-4-----7---5-7-8 -7--------10-9-10-9 -8 -7-9-8-6-5-8-7-
E -0-0---0-----------0-0-0-----1-2-0-0---0-----------0-0-0-8 -7------------7-6-----6-5-

Riff 5

E -------------------------------------------------------------------------------
B -------------------------------------------------------------------------------
G -10----------10---------10---------10-9------8-7-----7-6-----6-5-----3---------
D -10----------10---------10---------10-9-10-9-8-7-8-7-7-6-7-6-6-5-6-5-3----3----
A -8 ----------8 ---------8 ---------8 -7-10-9-6-5-8-7-5-4-7-6-4-3-6-5-1----3----
E -----------8----------8----------8------8 -7-----6-5-----5-4-----4-3------1----

Riff 6A

E --------------------------------------------------------------------
B --------------------------------------------------------------------
G ----------------------3---------------------------------3-----3-----
D -2------2------2------3--3--2------2----------5------5--3--3--3--3--
A -2------2------2------1--3--2------2----------5------5--1--3--1--3--
E -0--0-0-0--0-0-0--0-0----1--0--0-0-0--0-0-0-0-3--0-0-3-----1-----1--

Riff 6

E -------------------------------------------------------
B -------------------------------------------------------
G ----------------------3--------------------------3-----
D -2------2------2------3--3--2------2----------5--3--3--
A -2------2------2------1--3--2------2----------5--1--3--
E -0--0-0-0--0-0-0--0-0----1--0--0-0-0--0-0-0-0-3-----1--

Riff 7

E --------------------------------------------------------------------------------------------------
B --------------------------------------------------------------------------------------------------
G -----4--3----4-3---4-3-----4--3----4-3---4-3-4-7-----4--3----4-3---4-3------4--3----4-3---4-3-7-6-
D -----4--3----4-3---4-3-----4--3----4-3---4-3-4-7-----4--3----4-3---4-3------4--3----4-3---4-3-5-4-
A -----2--1----2-1---2-1-----2--1----2-1---2-1-2-5-----2--1----2-1---2-1------2--1----2-1---2-1-----
E -0-0-------0-----0-----0-0-------0-----0---------0-0-------0-----0------0-0-------0-----0---------

Order

Riff 1/1A x 4
Riff 1B/1C x 3
Riff 1D/1E x 1
Riff 2 x 4
Riff 3 x 2
Solo over Riff 1B x 3
Solo over Riff 1D x 1
Riff 2 x 4
Riff 3 x 2
Riff 4 x 1
Riff 4A x 1
Riff 4 x 2
Riff 5 x 1
Riff 6 x 1
Riff 6A x 1
Riff 6 x 4
Solo over Riff 7 x 2
Riff 4 x 2
Solo over Riff 1B x 3
Solo over Riff 1F x 1
Riff 2 x 4
Riff 3 x 2
Riff 3A x 1
Riff 3B x 1
Riff 1/1A x 4
Riff 1B/1C x 3
Riff 1G/1H x 1

Tabbed by Radiohater 2003


Overkill albums
2003 Kill Box 13
1999 Necroshine
1997 From the Underground and Below
1996 The Killing Kind
1994 W.F.O.
1993 I Hear Black
1991 Horrorscope
1989 The Years of Decay
1988 Under the Influence
1987 Taking Over
1985 Feel the Fire
Under the Influence tabs
01Shred tabbass tab
02Never Say Never tabbass tab
03Hello From the Gutter tabbass tab
04Mad Gone World tabbass tab
05Brainfade tabbass tab
06Drunken Wisdom tabbass tab
07End of the Line tabbass tab
08Head First tabbass tab

 

1