Search tabs:
Browse artists: 0-9 | A | B | C | D | E | F | G | H | I | J | K | L | M | N | O | P | Q | R | S | T | U | V | W | X | Y | Z
/ Overkill / Under the Influence (1988) / Never Say Never guitar tab

OVERKILL - NEVER SAY NEVER
(Under The Influence, 1988)

Key
= after note = vibrato
^ after note = heavy vibrato
\\ = slide down
/ = slide up
+ = tap
h = hammer
p = pull
n = natural harmonic
s = pinching harmonic (squeal)
* = tremolo pick
t = trill
b = bend
|-3-| = triplet

n number above the tab = play the first part then the first finishing part
			 play the first part a second time and then play the second finishing part
			 etc.

Fill 1

E ---
B ---
G ---
D -2-
A -2-
E -0-

Riff 1

E -------------------------------------------------------------------
B -------------------------------------------------------------------
G ---------5-4-3----------------------------5-4-3---3----------------
D -2-4-5-2-5-4-3-3-2----------------2-4-5-2-5-4-3-3-3----------------
A -2-4-5-2-3-2-1-3-2----------------2-4-5-2-3-2-1-3-1----------------
E -0-2-3-0-------1-0----------------0-2-3-0-------1------------------

Riff 2

E --------------------------------------------------------------------
B --------------------------------------------------------------------
G ----------------------------------------------------4-------4-------
D ----------------------------------------------------4-------4-------
A ----------3-2--------------3-2--------------3-2-----2-------2-------
E -00-0-2-1-----3-2-00-0-2-1-----3-2-00-0-2-1-----3-2---0-0-2---0-0-2-

Riff 2A

E --------------------------------------------------------------------------------------
B --------------------------------------------------------------------------------------
G ----------------------------------------------------4-------4-------4-------4---------
D ----------------------------------------------------4-------4-------4-------4-------2-
A ----------3-2--------------3-2--------------3-2-----2-------2-------2-------2-------2-
E -00-0-2-1-----3-2-00-0-2-1-----3-2-00-0-2-1-----3-2---0-0-2---0-0-2---0-0-2---0-0-2-0-

Riff 2B

E -------------------------------------------------------------------
B -------------------------------------------------------------------
G -----------------------------------4-------4-------4-------4-------
D -----------------------------------4-------4-------4-------4---3-4-
A ----------3-2--------------3-2-----2-------2-------2-------2---3-4-
E -00-0-2-1-----3-2-00-0-2-1-----3-2---0-0-2---0-0-2---0-0-2---0-1-2-

Fill 2

E -----------------------
B -----------------------
G -----------------------
D -2--------2------------
A -2--------2------------
E -0--------0-------3====

Riff 3A

E -----------------------------------------------------------------
B -----------------------------------------------------------------
G -------------------------------3-------------------------8-6-7---
D -5-------5-------5-------------3-5-------5-------5-------8-6-7-8-
A -5-------5-------5-------------1-5-------5-------5-------6-4-5-8-
E -3-0-0-0-3-0-0-0-3-0-0-0-0-2-3---3-0-0-0-3-0-0-0-3-0-0-0-------6-

E -----------------------------------------------------------------
B -----------------------------------------------------------------
G -------------------------------3-------------------------8-6-7---
D -5-------5-------5-------------3-5-------5-------5-------8-6-7-8-
A -5-------5-------5-------------1-5-------5-------5-------6-4-5-8-
E -3-0-0-0-3-0-0-0-3-0-0-0-0-2-3---3-0-0-0-3-0-0-0-3-0-0-0-------6-

Riff 3

E -----------------------------------------------------------------
B -----------------------------------------------------------------
G -------------------------------3-------------------------8-6-7---
D -5-------5-------5-------------3-5-------5-------5-------8-6-7-8-
A -5-------5-------5-------------1-5-------5-------5-------6-4-5-8-
E -3-0-0-0-3-0-0-0-3-0-0-0-0-2-3---3-0-0-0-3-0-0-0-3-0-0-0-------6-

E -----------------------------------------------------------------
B -----------------------------------------------------------------
G -------------------------------3---------------------------------
D -5-------5-------5-------------3-5-------5-----------------------
A -5-------5-------5-------------1-5-------5---------------3-2-1---
E -3-0-0-0-3-0-0-0-3-0-0-0-0-2-3---3-0-0-0-3-0-0-0-0-2-3-0-------1-

Riff 3B

E -----------------------------------------------------------------
B -----------------------------------------------------------------
G -------------------------------3-------------------------8-6-7---
D -5-------5-------5-------------3-5-------5-------5-------8-6-7-8-
A -5-------5-------5-------------1-5-------5-------5-------6-4-5-8-
E -3-0-0-0-3-0-0-0-3-0-0-0-0-2-3---3-0-0-0-3-0-0-0-3-0-0-0-------6-


E --------------------------------------------------------------------
B -----------------------------------------------------------15b17----
G -------------------------------3-----5-----7-----7b9-7b9------------
D -5-------5-------5-------------3---4-----6--------------------------
A -5-------5-------5-------------1-3-----5-----5-7--------------------
E -3-0-0-0-3-0-0-0-3-0-0-0-0-2-3--------------------------------------

Riff 4

E ------------------------------------------------------------------------------------------------------------------------
B ------------------------------------------------------------------------------------------------------------------------
G -------------------------------------3-------------------------------------------------------------------3--------------
D -2------------------------------3----3----------------------------3----2----------------------------3----3--------------
A -2------------------------3-2-1-3----1----------------------3-2-1-3----2----------------------3-2-1-3----1--------------
E -0----------------0-2-3-0-------1--0----------------0-2-3-0-------1--0-0--------------0-2-3-0-------1--0----------------

E ---------------------------------------------------------------------------------------------------------------------
B ---------------------------------------------------------------------------------------------------------------------
G ----------------------------------3-----------------------------------------------------------------3----------------
D -2--------------------------------3--------------------------------2--------------------------------3----------------
A -2------------------------3-2-1---1------------------------3-2-1---2------------------------3-2-1---1----------------
E -0----------------0-2-3-0-------1------------------0-2-3-0-------1-0----------------0-2-3-0-------1------------------

Fill 3

E --------------------------------------------------------------------------------------------------------------
B --------------------------------------------------------------------------------------------------------------
G --------------------------------------------------------------------3---------------------------------3-3-3-3-
D -2-2-------------------------------2--------------3--2--------------3--2--------------3--2------------3-3-3-3-
A -2-2-------------------------------2--------------3--2--------------1--2--------------3--2------------1-1-1-1-
E -0-0-------------------------------0--------------1--0-----------------0--------------1--0--------------------

E ---------------------------------------
B ---------------------------------------
G ------------------------------------3--
D -2--------------3--2------------4-5-3--
A -2--------------3--2------------4-5-1--
E -0--------------1--0------------2-3----

Riff 5

E ---------------------------------------------------------------
B ---------------------------------------------------------------
G -----4---3--------------------------4---3-------------------3--
D -----4---3-----5---4-----4-5-3------4---3-----5---4-----4-5-3--
A -----2---1-----5---4-----4-5-3------2---1-----5---4-----4-5-1--
E -0-0---0---0-0-3-0-2-0-0-2-3-1--0-0---0---0-0-3-0-2-0-0-2-3----

Riff 5A

E ---------------------------------------------------------------
B ---------------------------------------------------------------
G -----4---3--------------------------4---3---------------7-6-5--
D -----4---3-----5---4-----4-5-3------4---3-----5---4-----7-6-5--
A -----2---1-----5---4-----4-5-3------2---1-----5---4-----5-4-3--
E -0-0---0---0-0-3-0-2-0-0-2-3-1--0-0---0---0-0-3-0-2-0-0--------

Riff 6

E ----------------------------------------------------------------
B ----------------------------------------------------------------
G --------------3---------------3---------------3--7-6-5----------
D ----------4-5-3-----------4-5-3-----------4-5-3--7-6-5--7-6-5-3-
A ----------4-5-1-----------4-5-1-----------4-5-1--5-4-3--7-6-5-3-
E -0-00-0-0-2-3----0-00-0-0-2-3----0-00-0-0-2-3-----------5-4-3-1-

Riff 6A

E --------------------------------------------------------------------------
B --------------------------------------------------------------------------
G -----------------3------------------3------------------3--7-6-5-----------
D -------------4-5-3--------------4-5-3--------------4-5-3--7-6-5---7-6-5-3-
A -------------4-5-1--------------4-5-1--------------4-5-1--5-4-3---7-6-5-3-
E -00-00-00-00-2-3----00-00-00-00-2-3----00-00-00-00-2-3----------0-5-4-3-1-

Riff 6B

E --------------------------------------------------------------------------------------------
B --------------------------------------------------------------------------------------------
G -----------------3------------------3------------------3--7-6-5-----------------------------
D -------------4-5-3--------------4-5-3--------------4-5-3--7-6-5---7-6-5-3-2--------2--------
A -------------4-5-1--------------4-5-1--------------4-5-1--5-4-3---7-6-5-3-2--------2--------
E -00-00-00-00-2-3----00-00-00-00-2-3----00-00-00-00-2-3----------0-5-4-3-1-0--------0--------

Riff 7

E ----------------------------------------------------------------
B ----------------------------------------------------------------
G ----------------------------------------------------------------
D -----5---4---4-8-----5---4---4-8-----5---4---4-8-----5---4-5-7--
A -----5---4---4-8-----5---4---4-8-----5---4---4-8-----5---4-5-7--
E -0-0-3-0-2-0-2-6-0-0-3-0-2-0-2-6-0-0-3-0-2-0-2-6-0-0-3-0-2-3-5--

Riff 7A

E --------------------------------------------------------------------------------------------------------------n5-----
B --------------------------------------------------------------------------------------------------------------n5-----
G --------------------------------------------------------------------------------------------------5-----------n5-----
D -----5---4---4-8-----5---4---4-8-----5---4---4-8-----5---4-5-7--2--------2--------2--------2--------5-4-5------------
A -----5---4---4-8-----5---4---4-8-----5---4---4-8-----5---4-5-7--2--------2--------2--------2--2-3---------2-3--------
E -0-0-3-0-2-0-2-6-0-0-3-0-2-0-2-6-0-0-3-0-2-0-2-6-0-0-3-0-2-3-5--0--------0--------0--------0-------------------------

E -----------
B -----------
G -----------
D -7-6--6\\---
A -7-6--6\\---
E -5-4--4\\---

Fill 4

E -----------------------
B -----------------------
G -----------------------
D -2------------4-5-3--2-
A -2------------4-5-3--2-
E -0------------2-3-1--0-

Order

Fill 1 x 1
Riff 1 x 2
Riff 2 x 3
Riff 2A x 1
Fill 2 x 1
Riff 3A x 1
Riff 3/3B x 2
Riff 3 x 2
Riff 2B x 1
Riff 3 x 2
Riff 4 x 1
Fill 3 x 1
Riff 5 x 3
Riff 5A x 1
Riff 5 x 4
Solo over Riff 6 x 2
Solo over Riff 6A x 1
Solo over Riff 6B x 1
Solo over Riff 7 x 1
Solo over Riff 7A x 1
Riff 3 x 2
Riff 2B x 1
Riff 3 x 2
Riff 4A x 1
Riff 2A x 1
Fill 4 x 1

Tabbed by Radiohater 2003


Overkill albums
2003 Kill Box 13
1999 Necroshine
1997 From the Underground and Below
1996 The Killing Kind
1994 W.F.O.
1993 I Hear Black
1991 Horrorscope
1989 The Years of Decay
1988 Under the Influence
1987 Taking Over
1985 Feel the Fire
Under the Influence tabs
01Shred tabbass tab
02Never Say Never tabbass tab
03Hello From the Gutter tabbass tab
04Mad Gone World tabbass tab
05Brainfade tabbass tab
06Drunken Wisdom tabbass tab
07End of the Line tabbass tab
08Head First tabbass tab

 

1