Search tabs:
Browse artists: 0-9 | A | B | C | D | E | F | G | H | I | J | K | L | M | N | O | P | Q | R | S | T | U | V | W | X | Y | Z
/ Overkill / Under the Influence (1988) / Shred guitar tab

OVERKILL - SHRED
(Under The Influence, 1988)

Key
= after note = vibrato
^ after note = heavy vibrato
\\ = slide down
/ = slide up
+ = tap
h = hammer
p = pull
n = natural harmonic
s = pinching harmonic (squeal)
* = tremolo pick
t = trill
b = bend
|-3-| = triplet

n number above the tab = play the first part then the first finishing part
			 play the first part a second time and then play the second finishing part
			 etc.

Riff 1

E -----------------------------------------------------------
B -----------------------------------------------------------
G ------------------------------------------------3-------5--
D ------5--6--5-------5--6--5-------5--6--5-------3-------5--
A ------5--6--5-------5--6--5-------5--6--5-------1-------3--
E -00-0-3--4--3--00-0-3--4--3--00-0-3--4--3--00-0----00-0----

Riff 1A

E ---------------------------------------------------------------------------
B ---------------------------------------------------------------------------
G ------------------------------------------------3-------3-------3-------3--
D ------5--6--5-------5--6--5-------5--6--5-------3-------3-------3-------3--
A ------5--6--5-------5--6--5-------5--6--5-------1-------1-------1-------1--
E -00-0-3--4--3--00-0-3--4--3--00-0-3--4--3--00-0----00-0----00-0----00-0----

Riff 1B

E --------------------------------------------------------------
B --------------------------------------------------------------
G ---------------------------------------------------3-------5--
D ------5--6--5----5--6--5----5--6--5----------------3-------5--
A ------5--6--5----5--6--5----5--6--5----------------1-------3--
E -00-0-3--4--3----3--4--3----3--4--3--0\\-------00-0----00-0----

Riff 2A

E -----------------------------------------------------------------------
B -----------------------------------------------------------------------
G ---------------------------------3----------------------------------5--
D -2-2-3-2-2-3-2-2-3-2-2-3-2-2-3-2-3--2-2-3-2-2-3-2-2-3-2-2-3-2-2-3-2-5--
A -2-2-3-2-2-3-2-2-3-2-2-3-2-2-3-2-1--2-2-3-2-2-3-2-2-3-2-2-3-2-2-3-2-3--
E -0-0-1-0-0-1-0-0-1-0-0-1-0-0-1-0----0-0-1-0-0-1-0-0-1-0-0-1-0-0-1-0----

E ------------------------------------------------------------------------
B ------------------------------------------------------------------------
G ---------------------------------3--------------------------------------
D -2-2-3-2-2-3-2-2-3-2-2-3-2-2-3-2-3--2-2-3-2-2-3-2-2-3-2-2-3-2-2-6-5-3-5-
A -2-2-3-2-2-3-2-2-3-2-2-3-2-2-3-2-1--2-2-3-2-2-3-2-2-3-2-2-3-2-2-6-5-3-5-
E -0-0-1-0-0-1-0-0-1-0-0-1-0-0-1-0----0-0-1-0-0-1-0-0-1-0-0-1-0-0-4-3-1-3-

Riff 2

E -------------------------------------------------------------------
B -------------------------------------------------------------------
G -----------------------------3----------------------------------5--
D -3-2-2-3-2-2-3-2-2-3-2-2-3-2-3--2-2-3-2-2-3-2-2-3-2-2-3-2-2-3-2-5--
A -3-2-2-3-2-2-3-2-2-3-2-2-3-2-1--2-2-3-2-2-3-2-2-3-2-2-3-2-2-3-2-3--
E -1-0-0-1-0-0-1-0-0-1-0-0-1-0----0-0-1-0-0-1-0-0-1-0-0-1-0-0-1-0----

E ------------------------------------------------------------------------
B ------------------------------------------------------------------------
G ---------------------------------3--------------------------------------
D -2-2-3-2-2-3-2-2-3-2-2-3-2-2-3-2-3--2-2-3-2-2-3-2-2-3-2-2-3-2-2-6-5-3-5-
A -2-2-3-2-2-3-2-2-3-2-2-3-2-2-3-2-1--2-2-3-2-2-3-2-2-3-2-2-3-2-2-6-5-3-5-
E -0-0-1-0-0-1-0-0-1-0-0-1-0-0-1-0----0-0-1-0-0-1-0-0-1-0-0-1-0-0-4-3-1-3-

Riff 3

E ------------------------------
B ------------------------------
G --------3------5--------------
D -2------3------5------6-5-3-5-
A -2------1------3------6-5-3-5-
E -0--0-1----0-1----0-1-4-3-1-3-

Riff 3A

E -----------------------------------------------------------
B -----------------------------------------------------------
G --------3------5---------------------3------5--------------
D -2------3------5--2-2-2-2-2-2-2------3------5------6-5-3-5-
A -2------1------3--2-2-2-2-2-2-2------1------3------6-5-3-5-
E -0--0-1----0-1----0-0-0-0-0-0-0--0-1----0-1----0-1-4-3-1-3-

Riff 3B

E ------------------------------
B ------------------------------
G --------3------5--------------
D -2------3------5--2-2-2-2-2-2-
A -2------1------3--2-2-2-2-2-2-
E -0--0-1----0-1----0-0-0-0-0-0-

Riff 4

E ---------------------------------------------------------------------------
B ---------------------------------------------------------------------------
G --------------------3-------5/6---------------------3----------------------
D -2------------------3----2--5/6--2------------------3--------------6-5-3-5-
A -2------------------1----2--3/4--2------------------1--------------6-5-3-5-
E -0--------------0-1------0-------0--------------0-1------------0-1-4-3-1-3-

Riff 5

E -----------------------------------------------------------------------------------------------------------------
B -----------------------------------------------------------------------------------------------------------------
G -----------------------------------------------------------------------------------------------------------------
D ------5--6--5-------5--6--5-------5--6--5-------5--6--5-------8--7--5-------8--7--5-------8--7--5-------8--7--5--
A ------5--6--5-------5--6--5-------5--6--5-------5--6--5-------8--7--5-------8--7--5-------8--7--5-------8--7--5--
E -00-0-3--4--3--00-0-3--4--3--00-0-3--4--3--00-0-3--4--3--00-0-6--5--3--00-0-6--5--3--00-0-6--5--3--00-0-6--5--3--

Riff 6

E --------------------------------------------------------------------------------------
B --------------------------------------------------------------------------------------
G --------------------------------------------------------------------------------------
D -2----------------3----------------2----------------3----------------5----------------
A -2----------------3----------------2----------------3----------------5----------------
E -0----------------1----------------0----------------1----------------3----------------

E ----------------------------------------
B ----------------------------------------
G -2------4------6------------7--------9--
D -2------4------6------------7--------9--
A -0------2------4------------5--------7--
E ----------------------00-00----00-00----

Riff 7

E ----------------------------------------------------------------------------------------------
B ----------------------------------------------------------------------------------------------
G -------------------------------------------2-----------------------------------------------4--
D -------------------------------------------2-----------------------------------------------4--
A -------------------------------------------0-----------------------------------------------2--
E -22-22-22-22-22-22-22-22-22-22-22-22-22-22----22-22-22-22-22-22-22-22-22-22-22-22-22-22-22----

E ----------------------------------------------------------------------------------------
B ----------------------------------------------------------------------------------------
G -------------------------------------------2--------------------------------4--------5--
D -------------------------------------------2--------------------------------4--------5--
A -------------------------------------------0--------------------------------2--------3--
E -22-22-22-22-22-22-22-22-22-22-22-22-22-22----22-22-22-22-22-22-22-22-22-22----22-22----



Order

Riff 1 x 3
Riff 1A x 1
Riff 2A x 1
Riff 2 x 1
Riff 3 x 4
Riff 2 x 2
Riff 3 x 4
Riff 4 x 2
Solo over Riff 5 x 2
Solo over Riff 6 x 1
Solo over Riff 7 x 2
Riff 1 x 1
Riff 1B x 1
Riff 1 x 1
Riff 1A x 1
Riff 2A x 1
Riff 2 x 1
Riff 3 x 4
Riff 3A x 2
Riff 3B x 4
Riff 1A x 1

Tabbed by Radiohater 2003


Overkill albums
2003 Kill Box 13
1999 Necroshine
1997 From the Underground and Below
1996 The Killing Kind
1994 W.F.O.
1993 I Hear Black
1991 Horrorscope
1989 The Years of Decay
1988 Under the Influence
1987 Taking Over
1985 Feel the Fire
Under the Influence tabs
01Shred tabbass tab
02Never Say Never tabbass tab
03Hello From the Gutter tabbass tab
04Mad Gone World tabbass tab
05Brainfade tabbass tab
06Drunken Wisdom tabbass tab
07End of the Line tabbass tab
08Head First tabbass tab

 

1