Search tabs:
Browse artists: 0-9 | A | B | C | D | E | F | G | H | I | J | K | L | M | N | O | P | Q | R | S | T | U | V | W | X | Y | Z
/ Overkill / W.F.O. (1994) / Fast Junkie guitar tab

Author/Artist: Overkill
Title: Fast Junkie
Album: W.F.O.
Transcribed by: Dustin Ruther
Email:redhurley182@hotmail.com


Intro
   p.m._|   p.m._|      p.m.____|        p.m._|   p.m._|     p.m.____|
-------------------------------------|-----------------------------------------
-------------------------------------|-----------------------------------------
-------------------------------------|-----------------------------------------
-9--------8--------7-------------7--7|--9--------8--------10------------10-10--
-0--0--0--0--0--0--0----0--0--0--0--0|--0--0--0--0--0--0--0----0--0--0--0--0---
-------------------------------------|-----------------------------------------

end with…
-------------------------------------------------------------------------------
-------------------------------------------------------------------------------
-------------------------------------------------------------------------------
-7--7--7--7--------------------------------------------------------------------
-0--0--0--0--------------------------------------------------------------------
-------------------------------------------------------------------------------

   p.m._|    p.m._|               p.m._|    p.m._|     p.m._____|
-------------------------------------------------------------------------------
-------------------------------------------------------------------------------
-------------------------------------------------------------------------------
-2--------5---------2--/8--7---2---------5---------8\\7-----5--7--5--7----------
-0--0--0--3---0--0--0--/6--5---0--0--0---3---0--0--6\\5--0--3--5--3--5----------
-------------------------------------------------------------------------------


-------------------------------------------------------------------------------
-------------------------------------------------------------------------------
-------------------------------------------------------------------------------
--------------------------------5----------------------------------------------
-5-/-7--5----5-/-7--5----5-/-7--3---5-//-7--5----7-6~-------------------------
-3-/-5--3----3-/-5--3----3-/-5------3-//-5--3----------------------------------








Verse riff
    p.m._|   p.m._|     vol. swell                   vol. swell
-------------------------------------------------------------------------------
-------------------------------------------------------------------------------
-------------------------------------------------------------------------------
-2--------5---------2--(2)----------2---------/8--7---(2)----------------------
-0--0--0--3---0--0--0--(0)----------0---0--0--/6--5---(0)----------------------
-------------------------------------------------------------------------------

p.m.__________________________________|
-------------------------------------------------------------------------------
-------------------------------------------------------------------------------
-------------------------------------------------------------------------------
-------------------------------8--7--5-----------------------------------------
-3--3--3--3--3--3--5--5--5--5--6--5--3-----------------------------------------
-------------------------------------------------------------------------------

let it go let it go let it go
p.m._|    p.m._|               p.m._|    p.m._|     p.m._____|
-------------------------------------------------------------------------------
-------------------------------------------------------------------------------
-------------------------------------------------------------------------------
-2--------5---------2--/8--7---2---------5---------8\\7-----5--7--5--7----------
-0--0--0--3---0--0--0--/6--5---0--0--0---3---0--0--6\\5--0--3--5--3--5----------

my strip,  my bank…
p.m._|   p.m._|     vol. swell                   vol. swell
-------------------------------------------------------------------------------
-------------------------------------------------------------------------------
-------------------------------------------------------------------------------
-2--------5---------2--(2)----------2---------/8--7---(2)----------------------
-0--0--0--3---0--0--0--(0)----------0---0--0--/6--5---(0)----------------------
-------------------------------------------------------------------------------
p.m.______________|
-------------------------------------------------------------------------------
-------------------------------------------------------------------------------
-------------------------------------------------------------------------------
-------------------------------------------------------------------------------
-------------------------------------------------------------------------------
-3--3--3--3--3--3--------------------------------------------------------------
-------------------------------------------------------------------------------

I can kill…
p.m._|   p.m._|     vol. swell                   vol. swell
-------------------------------------------------------------------------------
-------------------------------------------------------------------------------
-------------------------------------------------------------------------------
-2--------5---------2--(2)----------2---------/8--7---(2)----------------------
-0--0--0--3---0--0--0--(0)----------0---0--0--/6--5---(0)----------------------
-------------------------------------------------------------------------------

p.m.__________________________________|
-------------------------------------------------------------------------------
-------------------------------------------------------------------------------
-------------------------------------------------------------------------------
-------------------------------8--7--5-----------------------------------------
-3--3--3--3--3--3--5--5--5--5--6--5--3-----------------------------------------
chorus
           p.m._|                        p.m._|
-------------------------------------------------------------------------------
-------------------------------------------------------------------------------
-------------------------------------------------------------------------------
-------------------------------------------------------------------------------
-2----------------8\\7--8\\7--8\\7--2---------------4-----------------------------
-0----------0--0--6\\5--6\\5--6\\5--0---------0--0--4-----------------------------
-------------------------------------------------2-----------------------------

-------------------------------------------------------------------------------
-------------------------------------------------------------------------------
-------------------------------------------------------------------------------
--------------------------------5----------------------------------------------
-5-/-7--5----5-/-7--5----5-/-7--3---5-//-7--5----7-6~-------------------------
-3-/-5--3----3-/-5--3----3-/-5------3-//-5--3----------------------------------

with wah…
-------------------------------------------------------------------------------
-------------------------------------------------------------------------------
-------------------------------------------------------------------------------
-------------------------------------------------------------------------------
--------------------------3-----------------------------3----------------------
-3-h-5--3---3-h-5--3---5------3-h-5--3----3-h-5--3---5-------------------------

                                            p.m.______________________________
-------------------------------------------------------------------------------
-------------------------------------------------------------------------------
-------------------------------------------------------------------------------
-------------------------------------------------------------------------------
--------------------------3---------------7--6-6-6-6-6-6-6-6-6-6-6-6-5-5-5-5---
-3-h-5--3---3-h-5--3---5------3-h-5--3-----------------------------------------

p.m.|
-------------------------------------------------------------------------------
-------------------------------------------------------------------------------
---------------7---------------------------------------------------------------
-----7-7-7-7-7-7---------------------------------------------------------------
-5-5-5-5-5-5-5-5-\\-------------------------------------------------------------
-------------------------------------------------------------------------------

bridge                         p.m.____|    p.m.______|    p.m.____|
----------------------------------------------------------|--------------------
----------------------------------------------------------|--------------------
-2-------------------2------------------------------------|--------------------
-2----2----5----3----2----2-------------------------------|--------------------
-0----2----5----1----0----2---------------3-------------5-|-----------8--------
------0----3--------------0----1---1--11--1---3---3--3--3-|--6--6--6--6--------

p.m.____|
-------------------------------------------------------------------------------
-------------------------------------------------------------------------------
-------------------------------------------------------------------------------
-------------------------------------------------------------------------------
----------10-------------------------------------------------------------------
-8--8--8--8--------------------------------------------------------------------

solo.
-----17-----------------------17-----------------------------------------------
-17------17--20b--20--18--17------17--220b--20--18-----------------------------
-------------------------------------------------------------------------------
-------------------------------------------------------------------------------
-------------------------------------------------------------------------------
-------------------------------------------------------------------------------


-----17------------------------------------------------------------------------
-17------17--20b--20--18------17------117-------17-----------------------------
--------------------------19------21--------17---------------------------------
-----------------------------------------------------19------------------------
-------------------------------------------------------------------------------
-------------------------------------------------------------------------------

-----17-----------------------17-----------------------------------------------
-17------17--20b--20--18--17------17--220b--20--18-----------------------------
-------------------------------------------------------------------------------
-------------------------------------------------------------------------------
-------------------------------------------------------------------------------
-------------------------------------------------------------------------------


-----17------------------------------------------------------------------------
-17------17--20b--20--18------17------117-------17-----------------------------
--------------------------19------21--------17---------------------------------
-----------------------------------------------------19------------------------
-------------------------------------------------------------------------------
-------------------------------------------------------------------------------

-20p19p17----20b----20b--17----------------------------------------------------
----------20------------------20b-----220b--20--19--17--19--17\\-15-h17--15--13-
-------------------------------------------------------------------------------
-------------------------------------------------------------------------------
-------------------------------------------------------------------------------
-------------------------------------------------------------------------------


-------------------------------------------------------------------------------
-----------------------------------------13-15-16-15b---19b--17----------------
-------------------------12----12-14-166----------------19b--17--14--12--------
----------12----12-14-16----16-------------------------------------------14----
-12-14-15----15----------------------------------------------------------------
-------------------------------------------------------------------------------


-------------------------------------------------------------------------------
-------------------------------------------------------------------------------
-------------------------------------------------------------------------------
-13--12------------------------------------------------------------------------
---------15--14-13~------------------------------------------------------------
-------------------------------------------------------------------------------




harmonized (strangely)
-------------15--------------14-----------13----------12-----------------------
-17--16--17------17--16--15------16--155------15--14------13-------------------
-------------------------------------------------------------------------------
-------------------------------------------------------------------------------
-------------------------------------------------------------------------------
-------------------------------------------------------------------------------

-------------15--------------14-----------13----------12-----------------------
-17--16--17------17--16--15------16--155------15--14------13-------------------
-------------------------------------------------------------------------------
-------------------------------------------------------------------------------
-------------------------------------------------------------------------------
-------------------------------------------------------------------------------

-------------------------------------------------------------------------------
-----------------------10--9tr10-----------------------------------------------
----------------7--10-------------10--77---------------------------------------
----------6--9----------------------------9--6---------------------------------
----5--7----------------------------------------7--5---------------------------
-6----------------------------------------------------6\\-----------------------


-------------------------------------------------------------------------------
-15h16p15----15h16p15-----15h16p15------15h16p15-----15h16p15-----15h16p15-----
----------17----------17-----------17-------------17-----------17--------------
-------------------------------------------------------------------------------
-------------------------------------------------------------------------------
-------------------------------------------------------------------------------


-15--10------16--11------17--12------188--13-------------------------15-15-----
---------10----------11----------12-----------13--15-15-16-16-17-17------------
-------------------------------------------------------------------------------
-------------------------------------------------------------------------------
-------------------------------------------------------------------------------
-------------------------------------------------------------------------------

                         massive tremolo>>>
-----15------15------20--17----------------------------------------------------
-17------17------17------------------------------------------------------------
-------------------------------------------------------------------------------
-------------------------------------------------------------------------------
-------------------------------------------------------------------------------
-------------------------------------------------------------------------------

p.m._|    p.m._|               p.m._|    p.m._|     p.m._____|        end with
-----------------------------------------------------------------------|-------
-----------------------------------------------------------------------|-------
-----------------------------------------------------------------------|-------
-2--------5---------2--/8--7---2---------5---------8\\7-----5--7--5--7--|---2---
-0--0--0--3---0--0--0--/6--5---0--0--0---3---0--0--6\\5--0--3--5--3--5--|---0---
-----------------------------------------------------------------------|-------

car sound…



let it out, let it go…
-------------------------------------------------------------------------------
-------------------------------------------------------------------------------
-------------------------------------------------------------------------------
-2--------5---------2--------5----------2--------5-----------------------------
-0--0--0--3---0--0--0--0--0--3---0--0---0--0--0--3---0--0--------3---------5---
-----------------------------------------------------------1--1--1---3--3--3---

-------------------------------------------------------------------------------
-------------------------------------------------------------------------------
-------------------------------------------------------------------------------
-2--------5---------2--------5----------2--------5---------8\\7-----5--7--5--7--
-0--0--0--3---0--0--0--0--0--3---0--0---0--0--0--3---0--0--6\\5--0--3--5--3--5--
-------------------------------------------------------------------------------

chorus
           p.m._|                        p.m._|
-------------------------------------------------------------------------------
-------------------------------------------------------------------------------
-------------------------------------------------------------------------------
-------------------------------------------------------------------------------
-2----------------8\\7--8\\7--8\\7--2---------------4-----------------------------
-0----------0--0--6\\5--6\\5--6\\5--0---------0--0--4-----------------------------
-------------------------------------------------2-----------------------------

-------------------------------------------------------------------------------
-------------------------------------------------------------------------------
-------------------------------------------------------------------------------
--------------------------------5----------------------------------------------
-5-/-7--5----5-/-7--5----5-/-7--3---5-//-7--5----7-6~-------------------------
-3-/-5--3----3-/-5--3----3-/-5------3-//-5--3----------------------------------

with wah…
-------------------------------------------------------------------------------
-------------------------------------------------------------------------------
-------------------------------------------------------------------------------
-------------------------------------------------------------------------------
--------------------------3-----------------------------3----------------------
-3-h-5--3---3-h-5--3---5------3-h-5--3----3-h-5--3---5-------------------------

p.m.______________________________
-------------------------------------------------------------------------------
-------------------------------------------------------------------------------
-------------------------------------------------------------------------------
-------------------------------------------------------------------------------
--------------------------3---------------7--6-6-6-6-6-6-6-6-6-6-6-6-5-5-5-5---
-3-h-5--3---3-h-5--3---5------3-h-5--3-----------------------------------------

p.m.|
-------------------------------------------------------------------------------
-------------------------------------------------------------------------------
---------------7---------------------------------------------------------------
-----7-7-7-7-7-7---------------------------------------------------------------
-5-5-5-5-5-5-5-5-\\-------------------------------------------------------------
-------------------------------------------------------------------------------


wide ***in open…
   p.m._|    p.m._|               p.m._|    p.m._|     p.m._____|
-------------------------------------------------------------------------------
-------------------------------------------------------------------------------
-------------------------------------------------------------------------------
-2--------5---------2--/8--7---2---------5---------8\\7-----5--7--5--7----------
-0--0--0--3---0--0--0--/6--5---0--0--0---3---0--0--6\\5--0--3--5--3--5----------
-------------------------------------------------------------------------------

(this riff is also used under the solo)
-------------------------------------------------------------------------------
-------------------------------------------------------------------------------
-------------------------------------------------------------------------------
--------------------------------------------------------7--7-----5-----5-------
-------------------------------------5---5--6--6--7--7--------7-----7-----7----
-3--3--3--4--4--4--5--5--5--6--6--6--------------------------------------------

        trem. dip\\\\\\\\\\\\\\\\\\\\
-------------------------------------------------------------------------------
-------------------------------------------------------------------------------
-5-----------------------------------------------------------------------------
----7~--2----------------------------------------------------------------------
--------0----------------------------------------------------------------------
-------------------------------------------------------------------------------

Metal on, my Friend!!!


Overkill albums
2003 Kill Box 13
1999 Necroshine
1997 From the Underground and Below
1996 The Killing Kind
1994 W.F.O.
1993 I Hear Black
1991 Horrorscope
1989 The Years of Decay
1988 Under the Influence
1987 Taking Over
1985 Feel the Fire
W.F.O. tabs
01Where It Hurts tabbass tab
02Fast Junkie tabbass tab
04They Eat Their Young tabbass tab
05What's Your Problem? tabbass tab
06Under One tabbass tab
07Supersonic Hate tabbass tab
09Up to Zero tabbass tab
10Bastard Nation tabbass tab
11Gasoline Dream tabbass tab

 

1