Search tabs:
Browse artists: 0-9 | A | B | C | D | E | F | G | H | I | J | K | L | M | N | O | P | Q | R | S | T | U | V | W | X | Y | Z
/ Overkill / W.F.O. (1994) / Supersonic Hate guitar tab

OVERKILL - SUPERSONIC HATE
(W.F.O., 1994)

Key
= after note = vibrato
^ after note = heavy vibrato
\\ = slide down
/ = slide up
+ = tap
h = hammer
p = pull
n = natural harmonic
s = pinching harmonic (squeal)
* = tremolo pick
t = trill
b = bend
|-3-| = triplet

n number above the tab = play the first part then the first finishing part
			 play the first part a second time and then play the second finishing part
			 etc.

Riff 1

E -------------------------------------------------------------------------------------------------
B -------------------------------------------------------------------------------------------------
G -12-14-14-14-14-14-14-14-14-14-14-14-14-14-14-14-12-14-14-14-14-14-14-14-14-14-14-14-14-14-14-14-
D -12-14-14-14-14-14-14-14-14-14-14-14-14-14-14-14-12-14-14-14-14-14-14-14-14-14-14-14-14-14-14-14-
A -10-12-12-12-12-12-12-12-12-12-12-12-12-12-12-12-10-12-12-12-12-12-12-12-12-12-12-12-12-12-12-12-
E -------------------------------------------------------------------------------------------------

E -------------------------------------------------------------------------------------------------
B -------------------------------------------------------------------------------------------------
G -12-14-14-14-14-14-14-14-14-12-14-14-14-14-14-14-12-14-14-14-14-14-14-14-14-14-14-14-14-14-14-14-
D -12-14-14-14-14-14-14-14-14-12-14-14-14-14-14-14-12-14-14-14-14-14-14-14-14-14-14-14-14-14-14-14-
A -10-12-12-12-12-12-12-12-12-10-12-12-12-12-12-12-10-12-12-12-12-12-12-12-12-12-12-12-12-12-12-12-
E -------------------------------------------------------------------------------------------------

Riff 1A

E -------------------------------------------------------------------------------------------------
B -------------------------------------------------------------------------------------------------
G -12-14-14-14-14-14-14-14-14-14-14-14-14-14-14-14-12-14-14-14-14-14-14-14-14-14-14-14-14-14-14-14-
D -12-14-14-14-14-14-14-14-14-14-14-14-14-14-14-14-12-14-14-14-14-14-14-14-14-14-14-14-14-14-14-14-
A -10-12-12-12-12-12-12-12-12-12-12-12-12-12-12-12-10-12-12-12-12-12-12-12-12-12-12-12-12-12-12-12-
E -------------------------------------------------------------------------------------------------

E -----------------------------------------------------------------------------------------
B -----------------------------------------------------------------------------------------
G -12-14-14-14-14-14-14-14-14-12-14-14-14-14-14-14-12-14-14-14-14-14-14-14--14--14--14--14-
D -12-14-14-14-14-14-14-14-14-12-14-14-14-14-14-14-12-14-14-14-14-14-14-14--14--14--14--14-
A -10-12-12-12-12-12-12-12-12-10-12-12-12-12-12-12-10-12-12-12-12-12-12-12--12--12--12--12-
E -----------------------------------------------------------------------------------------

Riff 2

E ------------------------------------------------------------------------------------------------------------------------
B ------------------------------------------------------------------------------------------------------------------------
G ------------------------------------------------------------------------------------------------------------------------
D -2------4-5-----5-6---6-7---7-8-2------4-5-----5-6---6-7---7-8-2------4-5-----5-6---6-7---7-8-2------4-5-4-2------------
A -2------4-5-----5-6---6-7---7-8-2------4-5-----5-6---6-7---7-8-2------4-5-----5-6---6-7---7-8-2------4-5-4-2--5--4--3---
E -0--2-0-2-3-0-0-3-4-0-4-5-0-5-6-0--2-0-2-3-0-0-3-4-0-4-5-0-5-6-0--2-0-2-3-0-0-3-4-0-4-5-0-5-6-0--2-0-2-3-2-0------------

Riff 2A

E ----------------------------------------------------------
B ----------------------------------------------------------
G ----------------------------------------------------------
D -2------4-5-----5-6---6-7---7-8-2------4-5-4-2------------
A -2------4-5-----5-6---6-7---7-8-2------4-5-4-2--5--4--3---
E -0--2-0-2-3-0-0-3-4-0-4-5-0-5-6-0--2-0-2-3-2-0------------

Riff 2B

E -------------------------------------------------------------------------------------------------------------------------
B -------------------------------------------------------------------------------------------------------------------------
G -------------------------------------------------------------------------------------------------------------------------
D -2------4-5-----5-6---6-7---7-8-2------4-5-----5-6---6-7---7-8-2------4-5-----5-6---6-7---7-8-2------4-5---4--4--4--4--4-
A -2------4-5-----5-6---6-7---7-8-2------4-5-----5-6---6-7---7-8-2------4-5-----5-6---6-7---7-8-2------4-5---4--4--4--4--4-
E -0--2-0-2-3-0-0-3-4-0-4-5-0-5-6-0--2-0-2-3-0-0-3-4-0-4-5-0-5-6-0--2-0-2-3-0-0-3-4-0-4-5-0-5-6-0--2-0-2-3-0-2--2--2--2--2-

Riff 2C

E ---------------------------------------------------------------------------------
B ---------------------------------------------------------------------------------
G -9--11---11-12-----12-13---13-14---14-15-9--11---11-12-----12-13---13-14---14-15-
D -9--11---11-12-----12-13---13-14---14-15-9--11---11-12-----12-13---13-14---14-15-
A -7--9 ---9 -10-----10-11---11-12---12-13-7--9 ---9 -10-----10-11---11-12---12-13-
E -------0-------0-0-------0-------0-------------0-------0-0-------0-------0-------

E -----------------------------------------------------------------------
B -----------------------------------------------------------------------
G -9--11---11-12-----12-13---13-14---14-15-9--11---11-12-----------------
D -9--11---11-12-----12-13---13-14---14-15-9--11---11-12---4--4--4--4--4-
A -7--9 ---9 -10-----10-11---11-12---12-13-7--9 ---9 -10---4--4--4--4--4-
E -------0-------0-0-------0-------0-------------0-------0-2--2--2--2--2-

Riff 2D

E ---------------------------------------------------------------------------------
B ---------------------------------------------------------------------------------
G -9--11---11-12-----12-13---13-14---14-15-9--11---11-12-----12-13---13-14---14-15-
D -9--11---11-12-----12-13---13-14---14-15-9--11---11-12-----12-13---13-14---14-15-
A -7--9 ---9 -10-----10-11---11-12---12-13-7--9 ---9 -10-----10-11---11-12---12-13-
E -------0-------0-0-------0-------0-------------0-------0-0-------0-------0-------

E ---------------------------------------------------------------------------------------------------
B ---------------------------------------------------------------------------------------------------
G -9--11---11-12-----12-13---13-14---14-15-9--11---11-12---------------------------------------------
D -9--11---11-12-----12-13---13-14---14-15-9--11---11-12---4--4--4--4------4--4--4------4--4--4--4-2-
A -7--9 ---9 -10-----10-11---11-12---12-13-7--9 ---9 -10---4--4--4--4------4--4--4------4--4--4--4-2-
E -------0-------0-0-------0-------0-------------0-------0-2--2--2--2--x-x-2--2--2--x-x-2--2--2--2-0-

Riff 3

E ------------------------------------------------------------------------------------------------------
B ------------------------------------------------------------------------------------------------------
G ------------------------------------------------------------------------------------------------------
D -2----------------2------4-5-----5-6---6-7---7-8-2--------2-2--2--2--2-2------4-5-----5-6---6-7---7-8-
A -2----------------2------4-5-----5-6---6-7---7-8-2--------2-2--2--2--2-2------4-5-----5-6---6-7---7-8-
E -0----------------0--2-0-2-3-0-0-3-4-0-4-5-0-5-6-0--------0-0--0--0--0-0--2-0-2-3-0-0-3-4-0-4-5-0-5-6-

Riff 4

E -------------------------------------------------------------------------------------------------------------------------
B -------------------------------------------------------------------------------------------------------------------------
G -----------------2-2-2-2-2-2-2-2-7----7----7----7----7-------------------------------------------------------------------
D -----------------2-2-2-2-2-2-2-2-7-7--7-7--7-7--7-7--7--5--2------4-5-----5-6---6-7---7-8-2------4-5-----5-6---6-7---7-8-
A -0-0-0-0-0-0-0-0-0-0-0-0-0-0-0-0-5-7--5-7--5-7--5-7--5--5--2------4-5-----5-6---6-7---7-8-2------4-5-----5-6---6-7---7-8-
E -----------------------------------5----5----5----5-----3--0--2-0-2-3-0-0-3-4-0-4-5-0-5-6-0--2-0-2-3-0-0-3-4-0-4-5-0-5-6-

Riff 4A

E ----------------------------------------------------------------------------------------------------------------------
B ----------------------------------------------------------------------------------------------------------------------
G -----------------2-2-2-2-2-2-2-2-7----7----7----7---------------------------------------------------------------------
D -----------------2-2-2-2-2-2-2-2-7-7--7-7--7-7--7-------2------4-5-----5-6---6-7---7-8-2------4-5-----5-6---6-7---7-8-
A -0-0-0-0-0-0-0-0-0-0-0-0-0-0-0-0-5-7--5-7--5-7--5-------2------4-5-----5-6---6-7---7-8-2------4-5-----5-6---6-7---7-8-
E -----------------------------------5----5----5----------0--2-0-2-3-0-0-3-4-0-4-5-0-5-6-0--2-0-2-3-0-0-3-4-0-4-5-0-5-6-

Riff 5

E -----------------------------------------------------------
B -----------------------------------------------------------
G -7--------------7-7-7-7-7-7-7------------------------------
D -7--------------7-7-7-7-7-7-7-9---9-9-9-9-9-8---8-8-8-8----
A -5--5-5-5-5-5-5-5-5-5-5-5-5-5-9---9-9-9-9-9-8---8-8-8-8----
E ------------------------------7---7-7-7-7-7-6---6-6-6-6-3==

Riff 6

E -----------------------------------------------------------------
B -----------------------------------------------------------------
G -----------------------------------------------------------------
D -7-7-7-7-7-7-7-7-7-7-7-7-7-7-7-7-4-5-4-2--2-2-2-4-5-4-2--2-2-2---
A -7-7-7-7-7-7-7-7-7-7-7-7-7-7-7-7-4-5-4-2--2-2-2-4-5-4-2--2-2-2---
E -5-5-5-5-5-5-5-5-5-5-5-5-5-5-5-5-2-3-2-0--0-0-0-2-3-2-0--0-0-0---

  1
E -----------------------------------------------------------
B -----------------------------------------------------------
G -----------------------------------------------------------
D -7-7-7-7-7-7-7-7-7-7-7-7-7-7-4-5-4-2--2-2-2-4-5-4-2--2-2-2-
A -7-7-7-7-7-7-7-7-7-7-7-7-7-7-4-5-4-2--2-2-2-4-5-4-2--2-2-2-
E -5-5-5-5-5-5-5-5-5-5-5-5-5-5-2-3-2-0--0-0-0-2-3-2-0--0-0-0-

  2
E ---------------------------------------------------------------------------------------------
B ---------------------------------------------------------------------------------------------
G -------------------------------9--9-9-9-9-9---7--7-7-7-7-7---5--5-5-5-5-5---4--4-4-4-4-------
D -7-7-7-7-7-7-7-7-7-7-7-7-7-7---9--9-9-9-9-9---7--7-7-7-7-7---5--5-5-5-5-5---4--4-4-4-4-----2-
A -7-7-7-7-7-7-7-7-7-7-7-7-7-7---7--7-7-7-7-7---5--5-5-5-5-5---3--3-3-3-3-3---2--2-2-2-2-----2-
E -5-5-5-5-5-5-5-5-5-5-5-5-5-5-0--------------0--------------0--------------0------------0-1-0-

Fill 1

E ---
B ---
G ---
D -4-
A -4-
E -2-

Riff 7

E --------------------------------------------------------------------------------------
B --------------------------------------------------------------------------------------
G -------------5----2--------------5----2--------------5----2--4----4-------------------
D -4----4------5----2--4----4------5----2--4----4------5----2--4----4-------------------
A -4----4------3----0--4----4------3----0--4----4------3----0--2----2----3-2----5-3-2---
E -2----2--------------2----2--------------2----2----------------------------3--------3-

Riff 7A

E -----------------------------------------------------------------------------------------------------------------
B -----------------------------------------------------------------------------------------------------------------
G --------------------5------2---------------------5------2---------------------5------2--4----4-------------------
D ---------4----------5------2----------4----------5------2----------4----------5------2--4----4-------------------
A ---------4----------3--3-3-0----------4----------3--3-3-0----------4----------3------0--2----2----3-2----5-3-2---
E -2-2-2-2-2--2-2-2-2-----------2-2-2-2-2--2-2-2-2----2-2----2-2-2-2-2--2-2-2-2----2-2------------------3--------3-

Order

Riff 1 x 1
Riff 2 x 2
Riff 3 x 1
Riff 4 x 1
Riff 5 x 1
Riff 2A x 1
Riff 3 x 1
Riff 4A x 1
Riff 5 x 1
Riff 2B x 2
Riff 6 x 1
Fill 1 x 1
Riff 7 x 2
Riff 7A x 2
Riff 1A x 1
Riff 2 x 2
Riff 3 x 1
Riff 5 x 1
Riff 2B x 2
Riff 2C x 1
Riff 2D x 1

Tabbed by Radiohater 2003


Overkill albums
2003 Kill Box 13
1999 Necroshine
1997 From the Underground and Below
1996 The Killing Kind
1994 W.F.O.
1993 I Hear Black
1991 Horrorscope
1989 The Years of Decay
1988 Under the Influence
1987 Taking Over
1985 Feel the Fire
W.F.O. tabs
01Where It Hurts tabbass tab
02Fast Junkie tabbass tab
04They Eat Their Young tabbass tab
05What's Your Problem? tabbass tab
06Under One tabbass tab
07Supersonic Hate tabbass tab
09Up to Zero tabbass tab
10Bastard Nation tabbass tab
11Gasoline Dream tabbass tab

 

1