Search tabs:
Browse artists: 0-9 | A | B | C | D | E | F | G | H | I | J | K | L | M | N | O | P | Q | R | S | T | U | V | W | X | Y | Z
/ Overkill / W.F.O. (1994) / They Eat Their Young guitar tab

OVERKILL - THEY EAT THEIR YOUNG
(W.F.O., 1994)

Key
= after note = vibrato
^ after note = heavy vibrato
\\ = slide down
/ = slide up
+ = tap
h = hammer
p = pull
n = natural harmonic
s = pinching harmonic (squeal)
* = tremolo pick
t = trill
b = bend
|-3-| = triplet

n number above the tab = play the first part then the first finishing part
			 play the first part a second time and then play the second finishing part
			 etc.

Fill 1

E -------------
B -------------
G -10-9--------
D --------2----
A -8 -7---2----
E --------0----

Riff 1

E -----------------------------------------------------------------
B -----------------------------------------------------------------
G -----------------------------------------------------10-9--------
D ------------------------------------------------------------2----
A -----------------------------------------------------8 -7---2----
E -0--0-0--0-0--0--0-0--0-0--0--0-0--0-0--0--0-0--0-0---------0----

Riff 2

E ---------------------------------------------------------
B ---------------------------------------------------------
G ----------------------------------------7--9-------------
D -4----------5--6----------7--8----------7--9----------3--
A -4----------5--6----------7--8----------5--7----------3--
E -2--0-0-0-0-3--4--0-0-0-0-5--6--0-0-0-0-------0-0-0-0-1--

Riff 2A

E -------------------------------------------
B -------------------------------------------
G ----------------------------------------7--
D -4----------5--6----------7--8----------7--
A -4----------5--6----------7--8----------5--
E -2--0-0-0-0-3--4--0-0-0-0-5--6--0-0-0-0----

Riff 3

E -------------------------------------------------------------------------------------------------------
B -------------------------------------------------------------------------------------------------------
G -------------------------------------------------------------------------------------------------------
D -------------------------------------------------------------------------------------------------------
A -------------------------------------------------------------------------------------------3--2--1-----
E -0--0-0--0-1--0--0-0--0-1--0--0-0--0-0--0--0-0--0-1--0--0-0--0-1--0--0-0--0-1--0--3--4--3-----------1--

Riff 3A

E -------------------------------------------------------------------------------------------------------
B -------------------------------------------------------------------------------------------------------
G -------------------------------------------------------------------------------------------------------
D -----------3------------3-------------------------3------------3------------3--------------------------
A -----------3------------3-------------------------3------------3------------3--------------3--2--1-----
E -0--0-0--0-1--0--0-0--0-1--0--0-0--0-0--0--0-0--0-1--0--0-0--0-1--0--0-0--0-1--0--3--4--3-----------1--

Riff 4

E ---------------------------------------------------------------------------------------
B ---------------------------------------------------------------------------------------
G ----------------------------------------------------------------------------4-------2--
D -4-------4----5--------4-------4----7--------4-------4----4--------2--------4---5---2--
A -4-------4----5--------4-------4----7--------4-------4----4--------2--------2---5---0--
E -2----2--2----3--0--1--2----2--2----5--0--1--2----2--2----2--0--1--0------------3------

E ----------------------------------------------------------------------------------------------------
B ----------------------------------------------------------------------------------------------------
G ----------------------------------------------------------------------------4-----------------7-----
D -4-------4----5--------4-------4----7--------4-------4----5--------2--------4--------5--------7-----
A -4-------4----5--------4-------4----7--------4-------4----5--------2--------2--------5--------5-----
E -2----2--2----3--0--1--2----2--2----5--0--1--2----2--2----3--0--1--0-----------------3--------------

E -----------------------------------------------------------
B -----------------------------------------------------------
G -----------------------------------------------------------
D -------------------------------------------------7----5----
A -------------------------------------------------7----5----
E -5-5-5-5-5-5-5-5-5-5-5-5-5-5-5-5-5-5-5-5-5-5-5-5-5----3----

Riff 5

E ----------------------------------------------------------------------------------------------------
B ----------------------------------------------------------------------------------------------------
G -----------------------------------------------2------------------------------7-------6--6----------
D -------4-5-4-2-------2--5--------4-5-4-2-------2----------4-5-4-2-------2--5--7-------6--6---6---5--
A ------------------4-------------------------4------------------------4--------5-------4--4---6---5--
E -2--2----------------------2--2---------------------2--2--------------------------5----------4---3--

Riff 5A

E -------------------------------------------------
B -------------------------------------------------
G ---------------------------7-------6--6----------
D -------4-5-4-2-------2--5--7-------6--6---6---5--
A ------------------4--------5-------4--4---6---5--
E -2--2--------------------------5----------4---3--

Riff 5B

E --------------------------------------------------- -----------------------------------
B --------------------------------------------------- -----------------------------------
G ---------------------------7-------6--6------------ -----------------------------------
D -------4-5-4-2-------2--5--7-------6--6---6---5--2- -------------0-2-4-5-4-2-0-------4-
A ------------------4--------5-------4--4---6---5--2- -------0-2-3---------------4-2---4-
E -2--2--------------------------5----------4---3--0- -0-2-3-------------------------3-2-

Riff 6

E -----------------------------------------------------------------------------------------------------------------------
B -----------------------------------------------------------------------------------------------------------------------
G -------------------------------------------------------------------------------------------------5-------4--4----------
D -------------------------------------------------------------------------------------------------5---5---4--4---4---3--
A -------------------------------------------------------------------------------------------------3---5---2--2---4---3--
E -0-0-0-0-0-0-0-0-0-0-0-0-0-0-0-0-0-0-0-0-0-0-0-0-0-0-0-0-0-0-0-0-0-0-0-0-0-0-0-0-0-0-0-0-0-0-0-0-----3----------2---1--

Riff 6A

E -----------------------------------------------------------------------------------------------------------------------
B -----------------------------------------------------------------------------------------------------------------------
G -------------------------------------------------------------------------------------------------5-------4--4----------
D -------------------------------------------------------------------------------------------------5---5---4--4---4---3--
A ---------------------------------5-7-------------5-7-------------5-7-----5-7-----5-7-----5-7-----3---5---2--2---4---3--
E -0-0-0-0-0-0-0-0-0-0-0-0-0-0-0-0-----0-0-0-0-0-0-----0-0-0-0-0-0-----0-0-----0-0-----0-0-----0-0-----3----------2---1--

Riff 7

E --------------------------------------------
B --------------------------------------------
G ----------------------5-------4--4----------
D -2-------5----7-------5---5---4--4---4---3--
A -2-------5----7-------3---5---2--2---4---3--
E -0----2--3----5----3------3----------2---1--

Riff 7A

E ---------------------------------------------- -0-
B ---------------------------------------------- -0-
G ----------------------5-------4--4------------ -0-
D -2-------5----7-------5---5---4--4---4---3--2- ---
A -2-------5----7-------3---5---2--2---4---3--2- ---
E -0----2--3----5----3------3----------2---1--0- ---

Riff 8

E -------------------------------------------------------------------
B -------------------------------------------------------------------
G -7--8--9-----------------------------------------------------------
D -7--8--9------------8---------9---------8---------8-----9-----8----
A -5--6--7--------/7---------7---------7---------7-----7-----7-------
E ----------0--0-----------------------------------------------------

Riff 8A

E ----------------------------------------------------------------------------
B ----------------------------------------------------------------------------
G -7--8--9-----------------------------------------------------------7--8--9--
D -7--8--9------------8---------9---------8---------8-----9-----8----7--8--9--
A -5--6--7--------/7---------7---------7---------7-----7-----7-------5--6--7--
E ----------0--0--------------------------------------------------------------

Riff 9

E --------------------------------------------------------------------------------
B --------------------------------------------------------------------------------
G -7--8--9--------------------------------7--8--9---------------------------------
D -7--8--9-----------2--------------------7--8--9-----------2---------------------
A -5--6--7-----------2--------------------5--6--7-----------2----4----------------
E ----------0--0--0--0-----------------------------0--0--0--0----5----------------

Riff 10

E -------------------------------------------------------------------------------------------------
B -------------------------------------------------------------------------------------------------
G -7--8--9-----------------------------------------------------------------------------------------
D -7--8--9--------3-----------3-----------------------3-----------3-----------3--------------------
A -5--6--7--------3-----------3-----------------------3-----------3-----------3--------------------
E ----------0--0--1--0--0--0--1--0--0--0--0--0--0--0--1--0--0--0--1--0--0--0--1--0--0--0--0--0--0--

Riff 10A

E -------------------------------------------------------------------------------------------------
B -------------------------------------------------------------------------------------------------
G -7--8--9-----------------------------------------------------------------------------------------
D -7--8--9--------5-----------5-----------------------5-----------5-----------5--------------------
A -5--6--7--------5-----------5-----------------------5-----------5-----------5--------------------
E ----------2--2--3--2--2--2--3--2--2--2--2--2--2--2--3--2--2--2--3--2--2--2--3--2--2--2--2--2--2--

Order

Fill 1 x 1
Riff 1 x 4
Riff 2 x 3
Riff 2A x 1
Riff 3 x 2
Riff 3A x 2
Riff 4 x 1
Riff 2 x 3
Riff 2A x 1
Riff 3 x 2
Riff 3A x 2
Riff 4 x 1
Riff 5 x 2
Riff 6 x 2
Riff 6A x 1
Riff 7 x 2
Riff 7A x 1
Riff 8 x 4
Riff 9 x 2
Solo over Riff 10 x 2
Solo over Riff 10A x 2
Riff 8 x 3
Riff 8A x 1
Riff 3 x 1
Riff 3A x 2
Riff 4 x 1
Riff 5 x 2
Riff 5A x 1
Riff 5B x 1

Tabbed by Radiohater 2003


Overkill albums
2003 Kill Box 13
1999 Necroshine
1997 From the Underground and Below
1996 The Killing Kind
1994 W.F.O.
1993 I Hear Black
1991 Horrorscope
1989 The Years of Decay
1988 Under the Influence
1987 Taking Over
1985 Feel the Fire
W.F.O. tabs
01Where It Hurts tabbass tab
02Fast Junkie tabbass tab
04They Eat Their Young tabbass tab
05What's Your Problem? tabbass tab
06Under One tabbass tab
07Supersonic Hate tabbass tab
09Up to Zero tabbass tab
10Bastard Nation tabbass tab
11Gasoline Dream tabbass tab

 

1