Search tabs:
Browse artists: 0-9 | A | B | C | D | E | F | G | H | I | J | K | L | M | N | O | P | Q | R | S | T | U | V | W | X | Y | Z
/ Overkill / W.F.O. (1994) / Up to Zero guitar tab

OVERKILL - UP TO ZERO
(W.F.O., 1994)

Key
= after note = vibrato
^ after note = heavy vibrato
\\ = slide down
/ = slide up
+ = tap
h = hammer
p = pull
n = natural harmonic
s = pinching harmonic (squeal)
* = tremolo pick
t = trill
b = bend
|-3-| = triplet

n number above the tab = play the first part then the first finishing part
			 play the first part a second time and then play the second finishing part
			 etc.

Riff 1A

E ------------------------------------------------------------------------------------------------------
B ------------------------------------------------------------------------------------------------------
G -------------9------------7--------------5----------------------9-----------7--------------4----------
D -------------9------------7--------------5----------------------9-----------7--------------4----------
A -7-7-7-7-7-7-7----7-7-7-7-5--5-5-5-5-5-5-3----------7-7-7-7-7-7-7---7-7-7-7-5--5-5-5-5-5-5-2----------
E ------------------------------------------------------------------------------------------------------

E ---------------------------------------------------------------------------------0----------
B ---------------------------------------------------------------------------------0----------
G -------------9------------7--------------5----------2----2-------3--------------------------
D -------------9------------7--------------5----------2----2-------3------2-------------------
A -7-7-7-7-7-7-7----7-7-7-7-5--5-5-5-5-5-5-3----------0----0----0--1------2-------------------
E ------------------------------------------------------------------------0-------------------

Riff 1

E ------------------------------------------------------------------------------------------------------
B ------------------------------------------------------------------------------------------------------
G -------------9------------7--------------5----------------------9-----------7--------------4----------
D -------------9------------7--------------5----------------------9-----------7--------------4----------
A -7-7-7-7-7-7-7----7-7-7-7-5--5-5-5-5-5-5-3----------7-7-7-7-7-7-7---7-7-7-7-5--5-5-5-5-5-5-2----------
E ------------------------------------------------------------------------------------------------------

E -------------------------------------------------------------------------------------------
B -------------------------------------------------------------------------------------------
G -------------9------------7--------------5----------2----2-------3-------------------------
D -------------9------------7--------------5----------2----2-------3------2------------------
A -7-7-7-7-7-7-7----7-7-7-7-5--5-5-5-5-5-5-3----------0----0----0--1------2------------------
E ------------------------------------------------------------------------0------------------

Riff 2

E -------------------------------------------------------------------------------------------
B -------------------------------------------------------------------------------------------
G --------------------------------------------------------------------------------------6----
D -5----6-----5--6-----5----5--6-----5--6--3----5----6-----5--6-----5----5--6-----5--6--6----
A -5----6-----5--6-----5----5--6-----5--6--3----5----6-----5--6-----5----5--6-----5--6--4----
E -3----4--0--3--4--0--3----3--4--0--3--4--1----3----4--0--3--4--0--3----3--4--0--3--4-------

E ------------------------------------------------------------------------------------------
B ------------------------------------------------------------------------------------------
G -------------------------------------------------------------------------------------6----
D -5----6-----5--6-----5----5--6-----5--6--3----5----6-----5------------5--6-----5--6--6----
A -5----6-----5--6-----5----5--6-----5--6--3----5----6-----5------------5--6-----5--6--4----
E -3----4--0--3--4--0--3----3--4--0--3--4--1----3----4--0--3--x----x----3--4--0--3--4-------

Riff 3

E --------------------------------------------------------------------------------------------------
B --------------------------------------------------------------------------------------------------
G -------------------------------------------6------------------------------6------5----------------
D ----5-----5-----5----6------5-----5--------6-------5-----5-----5-6--------6------5----------------
A ----5-----5-----5----6------5-----5--------4-------5-----5-----5-6--------4------3------4--4-3----
E -3--3--3--3--3--3--3-4---3--3--3--3--3--3-------3--3--3--3--3--3-4----3-3----3-3----3-3--------4--

Riff 4

E ----------------------------------------------------------------------------------------
B ----------------------------------------------------------------------------------------
G ------9-------7----8-------9----7-7--7--7-7-7------9-------7----8-------9---------------
D ------9-------7----8-------9----7-7--7--7-7-7------9-------7----8-------9---------------
A ------7-------5----6-------7----5-5--5--5-5-5------7-------5----6-------7---------------
E -0---------0----------0-----------------------0---------0----------0---------3---4---5--

E -------------------------------------------------------------------------------------------
B -------------------------------------------------------------------------------------------
G ------9-------7----8-------9----7-7--7--7-7-7---------9-------7----8-------9---------------
D ------9-------7----8-------9----7-7--7--7-7-7---------9-------7----8-------9---------------
A ------7-------5----6-------7----5-5--5--5-5-5---------7-------5----6-------7---------------
E -0---------0----------0-----------------------0-0-0-0------0----------0---------3---4---5--

Riff 5

E ----------------------------------------------------------------------------------------------------
B ----------------------------------------------------------------------------------------------------
G ------------------------------------------------------------------------------7---6---5-------------
D ------------------------------------------------------------------------------7---6---5--7---6---5--
A ----7--7-5------------------7--7-5-----------------------7--7-5--------------------------7---6---5--
E -0---------7--5---3---1--0---------7--1-1-1-1-1-1-1-1-0---------7--5---3---1------------------------

E --------------------------------------------------------------------------------------------------
B --------------------------------------------------------------------------------------------------
G ----------------------------------------------------------------------------7---6---5-------------
D ----------------------------------------------------------------------------7---6---5--7---6---5--
A ----7--7-5-------------------7--7-5----3----3----3-----7--7-5--------------------------7---6---5--
E -0---------7--5---3---1--0-0--------7--1--0-1--0-1--0---------7--5---3---1------------------------

E -------------------------
B -------------------------
G -5---4---3---------------
D -5---4---3--5---4---3--2-
A ------------5---4---3--2-
E -----------------------0-

Riff 5A

E ----------------------------------------------------------------------------------------------------
B ----------------------------------------------------------------------------------------------------
G ------------------------------------------------------------------------------7---6---5-------------
D ------------------------------------------------------------------------------7---6---5--7---6---5--
A ----7--7-5------------------7--7-5-----------------------7--7-5--------------------------7---6---5--
E -0---------7--5---3---1--0---------7--1-1-1-1-1-1-1-1-0---------7--5---3---1------------------------

E --------------------------------------------------------------------------------------------------
B --------------------------------------------------------------------------------------------------
G ----------------------------------------------------------------------------7---6---5-------------
D ---------------------------------------3----3----3--------------------------7---6---5--7---6---5--
A ----7--7-5-------------------7--7-5----3----3----3-----7--7-5--------------------------7---6---5--
E -0---------7--5---3---1--0-0--------7--1--0-1--0-1--0---------7--5---3---1------------------------

E ---------------------------
B ---------------------------
G -5---4---3--------------7--
D -5---4---3--------------7--
A ------------------------5--
E ------------0-0-0-0-0-0----

Riff 5B

E ----------------------------------------------------------------------------------------------------
B ----------------------------------------------------------------------------------------------------
G ------------------------------------------------------------------------------7---6---5-------------
D ------------------------------------------------------------------------------7---6---5--7---6---5--
A ----7--7-5------------------7--7-5-----------------------7--7-5--------------------------7---6---5--
E -0---------7--5---3---1--0---------7--1-1-1-1-1-1-1-1-0---------7--5---3---1------------------------

E --------------------------------------------------------------------------------------------------
B --------------------------------------------------------------------------------------------------
G ----------------------------------------------------------------------------7---6---5-------------
D ---------------------------------------3----3----3--------------------------7---6---5--7---6---5--
A ----7--7-5-------------------7--7-5----3----3----3-----7--7-5--------------------------7---6---5--
E -0---------7--5---3---1--0-0--------7--1--0-1--0-1--0---------7--5---3---1------------------------

Riff 5C

E --------------------------------------------------------------------------------------------------------
B --------------------------------------------------------------------------------------------------------
G ----------------------------------------------------------------------------------7---6---5-------------
D -------------------------------------------3----3----3----------------------------7---6---5--7---6---5--
A -----7--7-5--------------------7---7-5-----3----3----3------7---7-5--------------------------7---6---5--
E -0-0---0----7-0-5---3---1--0-0---0-----7-0-1--0-1--0-1--0-0---0-----7-0-5---3---1-----------------------

E --------------------------------------------------------------------------------------------------------
B --------------------------------------------------------------------------------------------------------
G ----------------------------------------------------------------------------------7---6---5-------------
D -------------------------------------------3----3----3----------------------------7---6---5--7---6---5--
A -----7--7-5--------------------7---7-5-----3----3----3------7---7-5--------------------------7---6---5--
E -0-0---0----7-0-5---3---1--0-0---0-----7-0-1--0-1--0-1--0-0---0-----7-0-5---3---1-----------------------

E ---------------------------------------------------
B ---------------------------------------------------
G -5---4---3-------------3---2---0--------------7--9-
D -5---4---3--5---4---3--3---2---0--------------7--9-
A ------------5---4---3-------------------------5--7-
E ----------------------------------0-0-0-0-0-0------


Riff 6

E -------------------------------------------------------------------------------------------------------
B -------------------------------------------------------------------------------------------------------
G --------------------------------------------------------------------------------------------------9----
D ----------------------------------------------------------------------------------5---7---9--2----9----
A ----7-5-7-----------------------7-5-7-5------------------7-5-7--------------------5---7---9--2----7----
E -0--------0--x-x-x--x-x-x--x-0----------7--5===3===1==0--------0--x-x-x--x-x-x--x-3---5---7--0---------

Riff 6A

E --------------------------------------------------------------------------------------------------------
B --------------------------------------------------------------------------------------------------------
G ----------------------------------------------------------------------------------2---4---5-------11----
D ----4-2-4-----------------------4-2-4-2------------------4-2-4--------------------2---4---5--4----11----
A ----------------------------------------4--2===0===-------------------------------0---2---3--4----9 ----
E -2--------2--x-x-x--x-x-x--x-2---------------------3==2--------2--x-x-x--x-x-x--x------------2----------

Order

Riff 1A x 1
Riff 1 x 1
Solo over Riff 2 x 1
Riff 3 x 2
Riff 4 x 1
Riff 3 x 2
Riff 4 x 1
Riff 5 x 1
Riff 1 x 1
Solo over Riff 6 x 2
Solo over Riff 6A x 2
Solo over Riff 5A x 1
Riff 3 x 2
Riff 4 x 1
Riff 5B x 1
Riff 5C x 1

Tabbed by Radiohater 2003


Overkill albums
2003 Kill Box 13
1999 Necroshine
1997 From the Underground and Below
1996 The Killing Kind
1994 W.F.O.
1993 I Hear Black
1991 Horrorscope
1989 The Years of Decay
1988 Under the Influence
1987 Taking Over
1985 Feel the Fire
W.F.O. tabs
01Where It Hurts tabbass tab
02Fast Junkie tabbass tab
04They Eat Their Young tabbass tab
05What's Your Problem? tabbass tab
06Under One tabbass tab
07Supersonic Hate tabbass tab
09Up to Zero tabbass tab
10Bastard Nation tabbass tab
11Gasoline Dream tabbass tab

 

1