Search tabs:
Browse artists: 0-9 | A | B | C | D | E | F | G | H | I | J | K | L | M | N | O | P | Q | R | S | T | U | V | W | X | Y | Z
/ Overkill / W.F.O. (1994) / What's Your Problem? guitar tab

OVERKILL - WHAT'S YOUR PROBLEM?
(W.F.O., 1994)

Key
= after note = vibrato
^ after note = heavy vibrato
\\ = slide down
/ = slide up
+ = tap
h = hammer
p = pull
n = natural harmonic
s = pinching harmonic (squeal)
* = tremolo pick
t = trill
b = bend
|-3-| = triplet

n number above the tab = play the first part then the first finishing part
			 play the first part a second time and then play the second finishing part
			 etc.

Riff 1A

E -----------------------------
B -----------------------------
G -----------------------------
D ----4---4-----------------4--
A ----4---4-----------------4--
E -00-2-0-2-0-23-33-33-33-2-2--

Riff 1

E -----------------------------------------------------------------------------
B -----------------------------------------------------------------------------
G --------------------------------------------------------------------5--4-----
D -4---4------------------4---4-5--6-5---4---4------------------4---4-5--4---5-
A -4---4------------------4---4-7--6-5---4---4------------------4---4-3--2-0-5-
E -2-0-2-0-22-22-22-22-22-2-0-2-5--4-3-0-2-0-2-0-22-22-22-22-22-2-0-2--------3-

E -----------------------------------------------------------------------
B -----------------------------------------------------------------------
G -----------------------------------------------------------------------
D -4---4------------------4---4-5--6-5---4---4------------3----------6---
A -4---4------------------4---4-7--6-5---4---4------------3----------6---
E -2-0-2-0-22-22-22-22-22-2-0-2-5--4-3-0-2-0-2-0-22-22-22-1--1-1-1-1-4---

Riff 2

E -------------------------------------------------------------------------------
B -------------------------------------------------------------------------------
G ---------------------------------------------------------4--------7--7--7------
D -4--------------4------------4--------------4------------4--------7--7--7------
A -4--------------4------------4--------------4------------2--------5--5--5------
E -2--2-1-0-0-1-0-2--1-0--0-1--2--2-1-0-0-1-0-2--1-0--0-1--------------------s3--

Riff 3

E -------------------------------------------------------------------------------------------------------------
B -------------------------------------------------------------------------------------------------------------
G -----------------4-----5---7-------------------4-------------------------4-----5---7----9------7/9-7------7--
D -4---------------4-----5---7---4---------------4----5----4---------------4-----5---7----9------7/9-7------7--
A -4---------------2-----3---5---4---------------2----5----4---------------2-----3---5----7------5/7-5------5--
E -2-1-0-3-2-1-0-1---0-0---0-----2-1-0-3-2-1-0-1------3----2-1-0-3-2-1-0-1---0-0---0----0----------------------

Fill 1

E -------------------------------
B -------------------------------
G -------5---5--5-------5---5--5-
D -------5---5--5-------5---5--5-
A -33-33-3---3--3-33-33-3---3--3-
E -------------------------------

Riff 4

E ---------------------------------------------------------------------------------------------------
B ---------------------------------------------------------------------------------------------------
G -------5---5--5-------5---5--5-------4-----4---4-------4-----4---4---------------------------------
D -------5---5--5-------5---5--5-------4-----4---4-------4-----4---4-4-3---5-4-3-----4-3---5-4-3-----
A -33-33-3---3--3-33-33-3---3--3-22-22-2-2-2-2-2-2-22-22-2-2-2-2-2-2-4-3---5-4-3-----4-3---5-4-3-----
E -------------------------------------------------------------------2-1-0-3-2-1-0-0-2-1-0-3-2-1-0-0-

Riff 5

E -------------------------------------------------------
B -------------------------------------------------------
G -------------------------------------------7----10--7--
D -2------2------2------2------2------2------7----10--7--
A -2------2------2------2------2------2------5----8 --5--
E -0--0-0-0--0-0-0--0-0-0--0-0-0--0-0-0--0-0-------------

Riff 5A

E --------------------------------------------------------
B --------------------------------------------------------
G --------------------------------------------7----10--7--
D -9------------------------------------------7----10--7--
A -7------------------------------------------5----8 --5--
E -7-0-0-0--0-0-0--0-0-0--0-0-0--0-0-0--0-0-0-------------

Riff 5B

E ---------------------------------------------------------
B ---------------------------------------------------------
G -------------------------------------------7----10--7----
D -2------2------2------2------2------2------7----10--7--2-
A -2------2------2------2------2------2------5----8 --5--2-
E -0--0-0-0--0-0-0--0-0-0--0-0-0--0-0-0--0-0-------------0-

Riff 6

E -----------------------------------------------------------------------------------------------------------------
B -----------------------------------------------------------------------------------------------------------------
G ---------------------------------------------------------9-9-------------------------9-9--9-9-9--9-9-9--9-9-9--9-
D ---------------------------------------------------------9-9-------------------------9-9--9-9-9--9-9-9--9-9-9--9-
A ---------------------------------------------------------7-7-------------------------7-7--7-7-7--7-7-7--7-7-7--7-
E -0-0--0-0-0--0-0-0--0-0-0--0-0-0--0-0-0--0-0-0--0-0-0--0-0-0--0-0-0--0-0-0--0-0-0--0-----------------------------

Riff 7

E -------------------------------------------------------------------------------------------------------------------
B -------------------------------------------------------------------------------------------------------------------
G ---------------------------------------------------------------------------------------2\\------2\\------2\\------5---
D ---------------------------------------------------------------------------------------2\\------2\\------2\\------5---
A -------------------------------------------------------------------------------------------------------------------
E -2-2--2-2-2--2-2-2--2-2-2--2-2-2--2-2-2--2-2-2--2-2-2--0-2-2--0-2-2--0-2-2--0-2-2--0-2-----0-2-----0-2-----0-2-----

Riff 8

E ---------------------------------------------------------------
B ---------------------------------------------------------------
G ---------------------------------------------------------------
D ---------------------------------2-2--2-2-2--2-2-2--2-2-2--2-4-
A ---------------------------------2-2--2-2-2--2-2-2--2-2-2--2-4-
E -2-1-0-3-2-1-0-0-2-1-0-3-2-1-0-0-0-0--0-0-0--0-0-0--0-0-0--0-2-

Order

Riff 1A x 4
Riff 1 x 4
Riff 2 x 1
Riff 1 x 2
Riff 3 x 2
Fill 1 x 1
Riff 2 x 1
Riff 1 x 2
Riff 3 x 2
Riff 4 x 1
Riff 5 x 2
Riff 5A x 2
Solo over Riff 5 x 3
Solo over Riff 5A x 1
Riff 6 x 1
Riff 7 x 1
Riff 1 x 2
Riff 3 x 2
Fill 1 x 1
Riff 8 x 1

Tabbed by Radiohater 2003


Overkill albums
2003 Kill Box 13
1999 Necroshine
1997 From the Underground and Below
1996 The Killing Kind
1994 W.F.O.
1993 I Hear Black
1991 Horrorscope
1989 The Years of Decay
1988 Under the Influence
1987 Taking Over
1985 Feel the Fire
W.F.O. tabs
01Where It Hurts tabbass tab
02Fast Junkie tabbass tab
04They Eat Their Young tabbass tab
05What's Your Problem? tabbass tab
06Under One tabbass tab
07Supersonic Hate tabbass tab
09Up to Zero tabbass tab
10Bastard Nation tabbass tab
11Gasoline Dream tabbass tab

 

1