Search tabs:
Browse artists: 0-9 | A | B | C | D | E | F | G | H | I | J | K | L | M | N | O | P | Q | R | S | T | U | V | W | X | Y | Z
/ Overkill / W.F.O. (1994) / Where It Hurts guitar tab

OVERKILL - WHERE IT HURTS
(W.F.O, 1994)

Key
= after note = vibrato
^ after note = heavy vibrato
\\ = slide down
/ = slide up
+ = tap
h = hammer
p = pull
n = natural harmonic
s = pinching harmonic (squeal)
* = tremolo pick
t = trill
b = bend
|-3-| = triplet

n number above the tab = play the first part then the first finishing part
			 play the first part a second time and then play the second finishing part
			 etc.

Riff 1A

E -----------------------------------------------------------------------------------------------------
B -----------------------------------------------------------------------------------------------------
G -----------------------------------------------------------------------------------------------------
D -----------------------------------------------------------------------------------------------------
A -----------------------------------------------------------------------------------------------------
E -00-0-00-0-0-00-00-0-00-0-00-0-0-00-00-0-00-0-00-0-0-00-00-0-00-0-00-0-0-00-00-0-00-0-00-0-0-00-00-0-

E ----------------------------------------------------
B ----------------------------------------------------
G ---------------------7-9----------------------------
D ---------------------7-9----------------------------
A ---------------------5-7----------------------------
E -00-0-00-0-0-00-00-0------0-0-0-0-0-0-0-0-0-0-0-0-0-

Riff 1

E ----------------------------------------------------
B ----------------------------------------------------
G ---------------------7-9----------------------------
D ---------------------7-9----------------------------
A ---------------------5-7----------------------------
E -00-0-00-0-0-00-00-0------0-0-0-0-0-0-0-0-0-0-0-0-0-

Riff 1B

E ---------------------------------------------------------------------------------------
B ---------------------------------------------------------------------------------------
G ---------------------------------------------------------------------------------7-9---
D ---------------------------------------------------------------------------------7-9---
A ---------------------------------------------------------------------------------5-7---
E -00-0-00-0-0-00-00-0-00-0-00-0-0-00-00-0-00-0-00-0-0-00-00-0-00-0-00-0-0-00-00-0-------

Riff 1C

E ---------------------------------------------------------------------------------------------------------------
B ---------------------------------------------------------------------------------------------------------------
G ---------------------------------------------------------------------------------------------------------------
D ---------------------------------------------------------------------------------------2--2--2--2--2--2--2--2--
A -----------------------------------------------------------------5-2-5-4---------------2--2--2--2--2--2--2--2--
E -n5n5-n5-n5n5-n5-n5-n5n5-n5n5-n5-n5n5-n5-n5n5-n5-n5-n5n5-n5n5-n5----------0-00-0-0-3-2-0--0--0--0--0--0--0--0--

Riff 2

E ----------------------------------------------------------------------------------------------------------
B ----------------------------------------------------------------------------------------------------------
G ----------------------------------------------------------------------------------------------------------
D -2--5--8--7-5-------7----7/8--2--5--8--7-5-------7----3--2--5--8--7-5-------7----7/8--2--5----------2-0---
A -2--5--8--7-5-------7----7/8--2--5--8--7-5-------7----3--2--5--8--7-5-------7----7/8--2--5--------------2-
E -0--3--6--5-3-0-3-6-5--0-5/6--0--3--6--5-3-0-3-6-5--0-1--0--3--6--5-3-0-3-6-5--0-5/6--0--3--6-5-3-0-------

E -----------------------------------------------------------------------------------------------------------
B -----------------------------------------------------------------------------------------------------------
G -----------------------------------------------------------------------------------------------------------
D -2---5--8--7-5-------7----7/8--2--5--8--7-5-------7----3--2--5--8--7-5-------7----7/8--2--5----------2-0---
A -2---5--8--7-5-------7----7/8--2--5--8--7-5-------7----3--2--5--8--7-5-------7----7/8--2--5--------------2-
E -0---3--6--5-3-0-3-6-5--0-5/6--0--3--6--5-3-0-3-6-5--0-1--0--3--6--5-3-0-3-6-5--0-5/6--0--3--6-5-3-0-------

Riff 2A

E ----------------------------------------------------------------------------------------------------------
B ----------------------------------------------------------------------------------------------------------
G ----------------------------------------------------------------------------------------------------------
D -2--5--8--7-5-------7----7/8--2--5--8--7-5-------7----3--2--5--8--7-5-------7----7/8--2--5----------2-0---
A -2--5--8--7-5-------7----7/8--2--5--8--7-5-------7----3--2--5--8--7-5-------7----7/8--2--5--------------2-
E -0--3--6--5-3-0-3-6-5--0-5/6--0--3--6--5-3-0-3-6-5--0-1--0--3--6--5-3-0-3-6-5--0-5/6--0--3--6-5-3-0-------

E ---------------------------------------------------------------------------------------------------5-0-5-0-5-0-5-0-------
B -0-5-0-5-0-5-0-5-0-5-0-5-0-5-0-5-0-5-0-5-0-5-0-5-0-5-0-5-0-5-0-5-0-8-0-8-0-8-0-8-0-8-0-8-0-8-0-8-0-----------------------
G -------------------------------------------------------------------------------------------------------------------------
D -------------------------------------------------------------------------------------------------------------------2-0---
A -----------------------------------------------------------------------------------------------------------------------2-
E -------------------------------------------------------------------------------------------------------------------------

Riff 2B

E ----------------------------------------------------------------------------------------------------------
B ----------------------------------------------------------------------------------------------------------
G ----2--5--4-2-------4----4/5-----2--6--4-2-------4----------2--5--4-2-------4----4/5-----2----------------
D -4--2--5--4-2-------4----4/5--4--2--6--4-2-------4----5--4--2--5--4-2-------4----4/5--4--2----------4-2---
A -4--0--3--2-0---0-3-2--0-2/3--4--0--3--2-0---0-3-2----5--4--0--3--2-0---0-3-2--0-2/3--4--0--3-2-0-------4-
E -2------------2---------------2------------2--------2-3--2------------2---------------2-----------2-------

E -----------------------------------------------------------------------------------------------------------
B -----------------------------------------------------------------------------------------------------------
G -----------------------------------------------------------------------------------------------------------
D -2---5--8--7-5-------7----7/8--2--5--8--7-5-------7----3--2--5--8--7-5-------7----7/8--2--5----------2-0---
A -2---5--8--7-5-------7----7/8--2--5--8--7-5-------7----3--2--5--8--7-5-------7----7/8--2--5--------------2-
E -0---3--6--5-3-0-3-6-5--0-5/6--0--3--6--5-3-0-3-6-5--0-1--0--3--6--5-3-0-3-6-5--0-5/6--0--3--6-5-3-0-------

Riff 2C

E ----------------------------------------------------------------------------------------------------------
B ----------------------------------------------------------------------------------------------------------
G ----2--5--4-2-------4----4/5-----2--6--4-2-------4----------2--5--4-2-------4----4/5-----2----------------
D -4--2--5--4-2-------4----4/5--4--2--6--4-2-------4----5--4--2--5--4-2-------4----4/5--4--2----------4-2---
A -4--0--3--2-0---0-3-2--0-2/3--4--0--3--2-0---0-3-2----5--4--0--3--2-0---0-3-2--0-2/3--4--0--3-2-0-------4-
E -2------------2---------------2------------2--------2-3--2------------2---------------2-----------2-------

E ---------------------------------------------------------------------------------------------------5-0-5-0-5-0-5-0-------
B -0-5-0-5-0-5-0-5-0-5-0-5-0-5-0-5-0-5-0-5-0-5-0-5-0-5-0-5-0-5-0-5-0-8-0-8-0-8-0-8-0-8-0-8-0-8-0-8-0-----------------------
G -------------------------------------------------------------------------------------------------------------------------
D -------------------------------------------------------------------------------------------------------------------2-0---
A -----------------------------------------------------------------------------------------------------------------------2-
E -------------------------------------------------------------------------------------------------------------------------

Riff 2D

E ----------------------------------------------------------------------------------------------------------
B ----------------------------------------------------------------------------------------------------------
G ----------------------------------------------------------------------------------------------------------
D -2--5--8--7-5-------7----7/8--2--5--8--7-5-------7----3--2--5--8--7-5-------7----7/8--2--5----------2-0---
A -2--5--8--7-5-------7----7/8--2--5--8--7-5-------7----3--2--5--8--7-5-------7----7/8--2--5--------------2-
E -0--3--6--5-3-0-3-6-5--0-5/6--0--3--6--5-3-0-3-6-5--0-1--0--3--6--5-3-0-3-6-5--0-5/6--0--3--6-5-3-0-------

E -------------------------------------------------------------------------------------------------------------
B -------------------------------------------------------------------------------------------------------------
G -------------------------------------------------------------------------------------------------------------
D -2---5--8--7-5-------7----7/8--2--5--8--7-5-------7----3--2--5--8--7-5-------7----7/8--2--5----------2-0---2-
A -2---5--8--7-5-------7----7/8--2--5--8--7-5-------7----3--2--5--8--7-5-------7----7/8--2--5--------------2-2-
E -0---3--6--5-3-0-3-6-5--0-5/6--0--3--6--5-3-0-3-6-5--0-1--0--3--6--5-3-0-3-6-5--0-5/6--0--3--6-5-3-0-------0-

E ----------------------------------------------------------
B ----------------------------------------------------------
G ----------------------------------------------------7-9---
D ------------------------------2-2-2-2-2-2-2-2-2-2-2-7-9---
A ---------------------5-2-5-4--2-2-2-2-2-2-2-2-2-2-2-5-7---
E -00-0-00-0-0-00-00-0----------0-0-0-0-0-0-0-0-0-0-0-------

Riff 2E

E ----------------------------------------------------------------------------------------------------------
B ----------------------------------------------------------------------------------------------------------
G ----------------------------------------------------------------------------------------------------------
D -2--5--8--7-5-------7----7/8--2--5--8--7-5-------7----3--2--5--8--7-5-------7----7/8--2--5----------2-0---
A -2--5--8--7-5-------7----7/8--2--5--8--7-5-------7----3--2--5--8--7-5-------7----7/8--2--5--------------2-
E -0--3--6--5-3-0-3-6-5--0-5/6--0--3--6--5-3-0-3-6-5--0-1--0--3--6--5-3-0-3-6-5--0-5/6--0--3--6-5-3-0-------

E ---------------------------------------------------------------------------------------------------5-0-5-0-5-0-5-0---------
B -0-5-0-5-0-5-0-5-0-5-0-5-0-5-0-5-0-5-0-5-0-5-0-5-0-5-0-5-0-5-0-5-0-8-0-8-0-8-0-8-0-8-0-8-0-8-0-8-0-------------------------
G ---------------------------------------------------------------------------------------------------------------------------
D -------------------------------------------------------------------------------------------------------------------2-0---2-
A -----------------------------------------------------------------------------------------------------------------------2-2-
E -------------------------------------------------------------------------------------------------------------------------0-

E ----------------------------------------------------------
B ----------------------------------------------------------
G ----------------------------------------------------7-9---
D ------------------------------2-2-2-2-2-2-2-2-2-2-2-7-9---
A ---------------------5-2-5-4--2-2-2-2-2-2-2-2-2-2-2-5-7---
E -00-0-00-0-0-00-00-0----------0-0-0-0-0-0-0-0-0-0-0-------

Riff 3A

E ------------------------------------------------------------------------------------------------------------------------
B ------------------------------------------------------------------------------------------------------------------------
G ------------------------------------------------------------------------------------------------------------------------
D -2----2---1-2-----2---2---1-2---------2---1-2-----2---2---1-2-3----2---1-2-----2---2---1-2---------2---1-2--------------
A -2----2---1-2-----2---2---1-2---------2---1-2-----2---2---1-2-3----2---1-2-----2---2---1-2---------2---1-2-----5-2-5-4--
E -0--0---0-----0-0---0---0-----0-0-0-0---0-----0-0---0---0--------0---0-----0-0---0---0-----0-0-0-0---0-----0-0----------

E ------------------------
B ------------------------
G ------------------------
D --------------2----2----
A --------------2----2----
E -0-00-0-0-3-2-0----0----

Riff 3

E -----------------------------------------------------------------------------------------------------------------------
B -----------------------------------------------------------------------------------------------------------------------
G -----------------------------------------------------------------------------------------------------------------------
D -----2---1-2-----2---2---1-2---------2---1-2-----2---2---1-2-3----2---1-2-----2---2---1-2---------2---1-2--------------
A -----2---1-2-----2---2---1-2---------2---1-2-----2---2---1-2-3----2---1-2-----2---2---1-2---------2---1-2-----5-2-5-4--
E -0-0---0-----0-0---0---0-----0-0-0-0---0-----0-0---0---0--------0---0-----0-0---0---0-----0-0-0-0---0-----0-0----------

E --------------
B --------------
G --------------
D --------------
A --------------
E -0-00-0-0-3-2-

Riff 3B

E ------------------------------------------------------------------------------------------------------------------------
B ------------------------------------------------------------------------------------------------------------------------
G ------------------------------------------------------------------------------------------------------------------------
D -2----2---1-2-----2---2---1-2---------2---1-2-----2---2---1-2-3----2---1-2-----2---2---1-2---------2---1-2--------------
A -2----2---1-2-----2---2---1-2---------2---1-2-----2---2---1-2-3----2---1-2-----2---2---1-2---------2---1-2-----5-2-5-4--
E -0--0---0-----0-0---0---0-----0-0-0-0---0-----0-0---0---0--------0---0-----0-0---0---0-----0-0-0-0---0-----0-0----------

E --------------
B --------------
G --------------
D --------------
A --------------
E -0-00-0-0-3-2-

Riff 3C

E --------------------------------------------------------
B --------------------------------------------------------
G --------------------------------------------------------
D -2----2---1-2-----2---2---1-2---------------------------
A -2----2---1-2-----2---2---1-2-----5-2-5-4---------------
E -0--0---0-----0-0---0---0-----0-0----------0-00-0-0-3-2-

Riff 4A

E --------------------------------------------------------
B --------------------------------------------------------
G ---------4----5--------------------4--5-------------9---
D -2-------4----5-------5-4--5-------4--5-------5-4---9---
A -2-------2----3-------5-4--5-------2--3-------5-4---7---
E -0---0-0----0-----0-0-3-2--3---0-0--------0-0-3-2-0-----

E -----------------------------------------------------------------------------
B -----------------------------------------------------------------------------
G -----4----5----------------------5----7--------------------------------------
D -----4----5-------5-4---5--5-5---5----7----5-5-------------------------------
A -----2----3-------5-4---5--5-5---3----5----5-5-------------------------------
E -0-0----0-----0-0-3-2-0-3--3-3-0-----------3-3---3-3-3-3-3-3-2-2-2-2-1-1-1-1-

Riff 4

E --------------------------------------------------------
B --------------------------------------------------------
G ---------4----5--------------------4--5-------------9---
D -2-------4----5-------5-4--5-------4--5-------5-4---9---
A -2-------2----3-------5-4--5-------2--3-------5-4---7---
E -0---0-0----0-----0-0-3-2--3---0-0--------0-0-3-2-0-----

E -----------------------------------------------------------------------------
B -----------------------------------------------------------------------------
G -----4----5----------------------5----7--------------------------------------
D -----4----5-------5-4---5--5-5---5----7----7-7-------------------------------
A -----2----3-------5-4---5--5-5---3----5----7-7-------------------------------
E -0-0----0-----0-0-3-2-0-3--3-3-0-----------5-5---5-5-5-5-5-5-4-4-4-4-3-3-3-3-

Riff 5

E ---------------------------------------------------------------------------------------
B ---------------------------------------------------------------------------------------
G -9---9---9--9---9---9----------------------9---9---9--10---10---9----------------------
D -9---9---9--9---9---9----2---------2-------9---9---9--9 ---9 ---9----2---------2-------
A -7---7---7--7---7---7----2---------2-------7---7---7--7 ---7 ---7----2---------2-------
E -----------------------0-0-------0-0-------------------------------0-0-------0-0-------

E ------------------------------------------------------------------------
B ------------------------------------------------------------------------
G -9---9---9--9---9---9---------------------------------------------------
D -9---9---9--9---9---9----2---------2-------9---9---9--2--2--2--2--2--2--
A -7---7---7--7---7---7----2---------2-------7---7---7--2--2--2--2--2--2--
E -----------------------0-0-------0-0------------------0--0--0--0--0--0--
							|--3--|  |--3--|

Riff 5A

E ----------------------------------------------------------------------------------------
B ----------------------------------------------------------------------------------------
G -9---9---9--9---9---9----------------------9---9---9--10---12---10----------------------
D -9---9---9--9---9---9----2---------2-------9---9---9--9 ---9 ---9 ----2---------2-------
A -7---7---7--7---7---7----2---------2-------7---7---7--7 ---7 ---7 ----2---------2-------
E -----------------------0-0-------0-0--------------------------------0-0-------0-0-------

E ------------------------------------------------------------------------
B ------------------------------------------------------------------------
G -9---9---9--9---9---9----------------------9---9---9--------------------
D -9---9---9--9---9---9----2---------2-------9---9---9--9--8--7--6--5--4--
A -7---7---7--7---7---7----2---------2-------7---7---7--7--6--5--4--3--2--
E -----------------------0-0-------0-0------------------7--6--5--4--3--2--
							|--3--|  |--3--|

Riff 6

E ------------------------------------------------------------------------------------------------------------------------
B ------------------------------------------------------------------------------------------------------------------------
G --------------------------------------------------------------------------------------------------------------------10--
D -----2--------3-----2--------3-----2--------3-----2------3------2--------3-----2--------3-----2--------3-----2------10--
A -----2--------3-----2--------3-----2--------3-----2------3------2--------3-----2--------3-----2--------3-----2------8 --
E -0-0----0-0-0---0-0----0-0-0---0-0----0-0-0---0-0----0-0-1--0-0----0-0-0---0-0----0-0-0---0-0----0-0-0---0-0----0-0-----

Riff 6A

E ------------------------------------------------------------
B ------------------------------------------------------------
G ------------------------------------------------------------
D -----2--------0-----2--------0-----2--------0-----2------3--
A -----2--------0-----2--------0-----2--------0-----2------3--
E -0-0----0-0-0---0-0----0-0-0---0-0----0-0-0---0-0----0-0-1--

Order

Riff 1A x 1
Riff 1 x 3
Riff 2/2A x 1
Riff 3A x 1
Riff 3 x 1
Riff 3B x 1
Riff 4A x 1
Riff 2 x 1
Riff 3B x 2
Riff 4 x 1
Riff 1B x 1
Riff 2B/2C x 1
Riff 5 x 1
Riff 6 x 1
Riff 6A x 2
Riff 5A x 1
Riff 6 x 1
Riff 6A x 2
Riff 1C x 1
Riff 3 x 1
Riff 3C x 1
Riff 4 x 1
Riff 2D/2E x 1

Tabbed by Radiohater 2003


Overkill albums
2003 Kill Box 13
1999 Necroshine
1997 From the Underground and Below
1996 The Killing Kind
1994 W.F.O.
1993 I Hear Black
1991 Horrorscope
1989 The Years of Decay
1988 Under the Influence
1987 Taking Over
1985 Feel the Fire
W.F.O. tabs
01Where It Hurts tabbass tab
02Fast Junkie tabbass tab
04They Eat Their Young tabbass tab
05What's Your Problem? tabbass tab
06Under One tabbass tab
07Supersonic Hate tabbass tab
09Up to Zero tabbass tab
10Bastard Nation tabbass tab
11Gasoline Dream tabbass tab

 

1