Search tabs:
Browse artists: 0-9 | A | B | C | D | E | F | G | H | I | J | K | L | M | N | O | P | Q | R | S | T | U | V | W | X | Y | Z
/ Overkill / The Years of Decay (1989) / I Hate guitar tab

I Hate
Overkill
Guitar
First part is at =196

   More of this song soon to come

D#||-----------------------------------|-------------------------------|
A#||-----------------------------------|-------------------------------|
F#||*--11--11--11--12--12--12--11--11--|--11--9--9--9--11--11--12--12--|
C#||*--9---9---9---9---9---9---9---9---|--9---9--9--9--9---9---9---9---|
G#||-----------------------------------|-------------------------------|
D#||-----------------------------------|-------------------------------|


                                                                   3x
----------------------------------|--------------------------------||------------------------|
----------------------------------|--------------------------------||------------------------|
--11--11--11--12--12--12--11--11--|--11--9--9--9--14--14--12--12--*||*-----------------------|
--9---9---9---9---9---9---9---9---|--9---9--9--9--9---9---9---9---*||*--5--5--5--4------4----|
----------------------------------|--------------------------------||---5--5--5--4------4----|
----------------------------------|--------------------------------||------------------------|



------------------------|-----------------------|------------------------|-----------------------|
------------------------|-----------------------|------------------------|-----------------------|
------------------------|-----------------------|------------------------|-----------------------|
--------4----------4----|--5--5--5--4------4----|--------4----------4----|--5--5--5--4------4----|
--------4----------4----|--5--5--5--4------4----|--------4----------4----|--5--5--5--4------4----|
--2--2-------2--2-------|-----------------------|--2--2-------2--2-------|-----------------------|



------------------------|------------------------|------------||-----------------------|
------------------------|------------------------|------------||-----------------------|
------------------------|------------------------|-----------*||-----------------------|
--------4----------4----|--5--5--5--4-------2----|------2----*||--5--5--5--4------4----|
--------4----------4----|--5--5--5--4-------2----|------2-----||--5--5--5--4------4----|
--2--2-------2--2-------|----------------0-------|------------||-----------------------|



------------------------|------------------------|-----------|-----------------------|
------------------------|------------------------|-----------|-----------------------|
------------------------|------------------------|-----------|-----------------------|
--------4----------4----|--5--5--5--4-------2----|------2----|--5--5--5--4------4----|
--------4----------4----|--5--5--5--4-------2----|------2----|--5--5--5--4------4----|
--2--2-------2--2-------|----------------0-------|-----------|-----------------------|



------------------------|-------------||-------------------------|--------------------------|
------------------------|-------------||-------------------------|--------------------------|
------------------------|-------------||-------------------------|--------------------------|
--------4----------4----|--------4----||--4--4--4--4--4--4--2----|--------------------------|
--------4----------4----|--------4----||--2--2--2--2--2--2--0----|--5--5--5--5--5--5--5--5--|
--2--2-------2--2-------|--2--2-------||-------------------------|--3--3--3--3--3--3--3--3--|



-------------------------|--------------------------|-------------------------|
-------------------------|--------------------------|-------------------------|
-------------------------|--------------------------|-------------------------|
--4--4--4--4--4--4--2----|--7--7--7--7--7--7--7--7--|--4--4--4--4--4--4--2----|
--2--2--2--2--2--2--0----|--5--5--5--5--5--5--5--5--|--2--2--2--2--2--2--0----|
-------------------------|--------------------------|-------------------------|



--------------------------|-----------------------|-----------------------|
--------------------------|-----------------------|-----------------------|
--------------------------|-----------------------|-----------------------|
--------------------------|-----------------------|-----------------------|
--5--5--5--5--5--5--5--5--|--4-------4-------4----|-----4-------5----5----|
--3--3--3--3--3--3--3--3--|--2----x--2----x--2----|--x--2----x--3----3----|



-------------------------|--------------------------|-------------------------|
-------------------------|--------------------------|-------------------------|
-------------------------|--------------------------|-------------------------|
--4--4--4--4--4--4--2----|--------------------------|--4--4--4--4--4--4--2----|
--2--2--2--2--2--2--0----|--5--5--5--5--5--5--5--5--|--2--2--2--2--2--2--0----|
-------------------------|--3--3--3--3--3--3--3--3--|-------------------------|



--------------------------|-------------------------|--------------------------|
--------------------------|-------------------------|--------------------------|
--------------------------|-------------------------|--------------------------|
--7--7--7--7--7--7--7--7--|--4--4--4--4--4--4--2----|--------------------------|
--5--5--5--5--5--5--5--5--|--2--2--2--2--2--2--0----|--5--5--5--5--5--5--5--5--|
--------------------------|-------------------------|--3--3--3--3--3--3--3--3--|



-------------------------||
-------------------------||
-------------------------||
-------------------------||
--4----5----4------------||
--2----3----2------------||


Overkill albums
2003 Kill Box 13
1999 Necroshine
1997 From the Underground and Below
1996 The Killing Kind
1994 W.F.O.
1993 I Hear Black
1991 Horrorscope
1989 The Years of Decay
1988 Under the Influence
1987 Taking Over
1985 Feel the Fire
The Years of Decay tabs
01Time to Kill tabbass tab
02Elimination tabbass tab
03I Hate tabbass tab
04Nothing to Die For tabbass tab
06Birth of Tension tabbass tab
08The Years of Decay tabbass tab
09E.Vil N.Ever D.Ies tabbass tab

 

1