Search tabs:
Browse artists: 0-9 | A | B | C | D | E | F | G | H | I | J | K | L | M | N | O | P | Q | R | S | T | U | V | W | X | Y | Z
/ / / guitar tab

-INTRO-
PART 1                                                 PART 2(2x)
E[-----------------------------------------------------|------------------
B[-----------------------------------------------------|-----------8h11p8-
G[---------------------8h10p8---5h7p5------------------|-----8h10p8-------
D[--5h7p5--------8h10p8--------7-----7----6--6-----8--8|---10-------------
A[-------8-5-10-8------------5----------6--------8-----|-8----------------
D[------------------------------------6-----6--8-----8-|------------------
                            PART 3
----------------------------|-------------------------------------------------]
----------------------------|---------8h11p8----------------------------------]
-----5h7p5------------------|---8h10p8----------5h7p5-------------------------]
----7-----7----6--6-----8--8|-10---------------7-----7-----6--6-----8-88888888]
--5----------6--------8-----|8---------------5-----------6--------8-8-88888888]
-----------6-----6--8-----8-|--------------------------6-----6--8-----88888888]

-VERSES-(2x)
E[------------------------------------------------------------------------]
B[------------------------------------------------------------------------]
G[------------------------------------------------------------------------]
D[-00-00-00h1--00-00-00-XX-XX--00-00-00h1--00-00-00-3333/55---------------]
A[-00-00-00h1--00-00-00-XX-XX--00-00-00h1--00-00-00-3333/55---------------]
D[-00-00-00h1--00-00-00-XX-XX--00-00-00h1--00-00-00-3333/55---------------]

-CHORUS-(2x)
E[--------------------------------------------------------------------------]
B[--------------------------------------------------------------------------]
G[----------5/-7/-9/-10/12-1212-----------5/-10-10-1010101010\\9-------------]
D[-0-0-3-33-x/-x/-x/-x/-x--x-x---0-0-3-33-x/-x--x--x-x-x-x-x-\\x-------------]
A[-0-0-3-33-3/-5/-7/-8/-10-1010--0-0-3-33-3/-8--8--8-8-8-8-8-\\7-------------]
D[-0-0-3-33----------------------0-0-3-33-----------------------------------]

-BRIDGE-(PLAY THIS IN THE BACKGROUND THROUGH THE WHOLE BRIDGE)
E[----------------]
B[----------------]
G[------8\\7-7-----]
D[----7-------7---]
A[--------------5-]
D[--0-------------]

-BRIDGE-(CLASSICAL)PART 1
E[------------------------------------------------------]
B[------------------------------------------------------]
G[------------------------------------------------------]
D[--12-14-15-14-15!-14!-17!-14--12-14-14h15-14-14h15-12-]
A[------------------------------------------------------]
D[------------------------------------------------------]

-BRIDGE-(CLASSICAL)PART 2
E[------------------------------------------------------]
B[------------------------------------------------------]
G[------------------------------------------------------]
D[-17-15-14-12---17-15-14-15!-14-17-12------------------]
A[------------------------------------------------------]
D[------------------------------------------------------]

-BRIDGE-(CLASSICAL)PART 3
E[----------------------------------------------------------------------------]
B[----------------------------------------------------------------------------]
G[------------------------------(2x)-------------------------7h9-7h9-9h10-9h10]
D[-12-12/14-15-14-15!-17!-14!-12-----15h17-15h17--14h15-14h15-----------------]
A[----------------------------------------------------------------------------]
D[----------------------------------------------------------------------------]


albums
tabs

 

1