Search tabs:
Browse artists: 0-9 | A | B | C | D | E | F | G | H | I | J | K | L | M | N | O | P | Q | R | S | T | U | V | W | X | Y | Z
/ P.O.D. / The Fundamental Elements Of Southtown (1999) / Bullet The Blue Sky guitar tab

 ----------------------------------------------------------------------------------------------

	     SONG: Bullet The Blue Sky
	     BAND: P.O.D.
	    ALBUM: The Fundamental Elements of Southtown
   TRANSCRIBED BY: Josh Brown (joshbrown311@hotmail.com) 
	     DATE: Unknown

 ----------------------------------------------------------------------------------------------

	TUNING: drop d (D,A,D,G,B,E)


        ^ = bend
       () = palm mute


     INTRO:

    |---------------|
    |---------------|
    |-----------10^-|
    |-(0-0-0-0)--x--|
    |-(0-0-0-0)--8^-|
    |-(0-0-0-0)-----|

     VERSE:

    |---|
    |---|
    |---|
    |-0-|
    |-0-|
    |-0-|

     CHORUS:

    |----------------------------------|
    |----------------------------------|
    |-7--7-7-7/9--9-9-10-10-10-10-5--5-|
    |-x--x-x-x/x--x-x--x--x--x--x-x--x-|
    |-5--5-5-5/7--7-7--8--8--8--8-3--3-|
    |----------------------------------|

     INTERLUDE PART:

    |-10-----------10----------10-----------10------------------------------|
    |------10----------10-----------10----------10--------------------------|
    |----------10---------10------------10---------10--10-11-12----10-11-12-|
    |-----------------------------------------------------------------------|
    |-----------------------------------------------------------------------|
    |-----------------------------------------------------------------------|

    |-10-----------10----------10-----------10----------------------------------|
    |------10----------10-----------10----------10------------------------------|
    |----------10---------10------------10---------10--10-11-12----10/11--10/11-|
    |---------------------------------------------------------------------------|
    |---------------------------------------------------------------------------|
    |---------------------------------------------------------------------------|

    |------------------------------------------|
    |------------------------------------------|
    |-10/11--10/11--10/11--10/11--10/11--10/11-|
    |------------------------------------------|
    |------------------------------------------|
    |------------------------------------------|

    |-------------------------------------------------13^-13^-13^-13^-|
    |-13---\---12--\--10----------13---\---12--\--10------------------|
    |---------------------10/-----------------------------------------|
    |-----------------------------------------------------------------|
    |-----------------------------------------------------------------|
    |-----------------------------------------------------------------|

    |-13^-13^-13^-13^-15^-15^-15^-15^-15^-15^-15^-15^-|
    |-------------------------------------------------|
    |-------------------------------------------------|
    |-------------------------------------------------|
    |-------------------------------------------------|
    |-------------------------------------------------|





P.O.D. albums
2003 Payable on Death
2001 Satellite
1999 The Fundamental Elements Of Southtown
1996 Brown
The Fundamental Elements Of Southtown tabs
01Greetings tabbass tab
02Hollywood tabbass tab
03Southtown tabbass tab
04Checkin' Levels tabbass tab
05Rock The Party (Off The Hook) tabbass tab
06Lie Down tabbass tab
07Set Your Eyes To Zion tabbass tab
08Lo Siento tabbass tab
09Bullet The Blue Sky tabbass tab
11Image tabbass tab
12Shouts tabbass tab
13Tribal tabbass tab
14Freestyle tabbass tab
15Follow Me tabbass tab
16Outkast tabbass tab

 

1