Search tabs:
Browse artists: 0-9 | A | B | C | D | E | F | G | H | I | J | K | L | M | N | O | P | Q | R | S | T | U | V | W | X | Y | Z
/ Pennywise / Land of the Free? (2001) / The World guitar tab

Song: The World
Artist: Pennywise
Album: Land of the free?
Tabbed by: nofxer_666@hotmail.com
Tuning: standard
Intro A:
1----------------------------------|
2----------------------------------|
3----------------------------------|x2 then
4----------------------------------|
5---9-9--9-9--10-10-13-12----------|
6----------------------------------|

Intro B:
1---------------------     ----------------------|
2---------------------     ----------------------|
3---------------------     ----------------------|
4---4-4-4--7-6--------x3   ---4-4--4-4--4-4--7-6-|x1
5---4-4-4--7-6--------     ---4-4--4-4--4-4--7-6-|
6---2-2-2--5-4--------     ---2-2--2-2--2-2--5-4-|

Verse:
1----------------------------------------------|
2----------------------------------------------|
3----------------------------------------------|
4----11-11-11-11-14-14-14-16-16-16-------------|x3 then
5-----9--9-9--9--12-12-12-14-14-14-------------|
6----------------------------------------------|

Pre-chorus
1--------------------------|
2--------------------------|
3--------------------------|
4----4-4--4-4--4-4-4-------|x1
5----4-4--4-4--4-4-4-------|
6----2-2--2-2--2-2-2-------|

Chorus:                          "But we got to have…"
1----------------------|        |- --------------|
2----------------------|        |----------------|
3-11------------11--9--|        |-----9-9-----11-|
4-11----7----9--11--9--|x2 then |-----9-9-9-9-11-|
5--9----7----9---9--7--|        |-----7-7-9-9--9-|
6-------5----7---------|        |---------7-7----|



Solo: gtr 1 (just play the verse fast)

Solo:gtr 2 ( not a 100% sure about this)
1---------------------------------------------------------------------------|
2---------------------------------------------------------------------------|
3---11^11^11^--12^-12^--14^14^----x2--15/14/12---15/14/12--14^--14^--16^----|
4---------------------------------------------------------------------------|
5---------------------------------------------------------------------------|
6---------------------------------------------------------------------------|

Song order:
Intro A
Intro B
Verse
Pre chorus
Chorus * I didn't put rythym into chorus, I'm sure you can figure it out.
Intro A
Intro B
Verse
Pre chorus
Chorus
Solo
Verse
Pre chorus
Chorus

So that's it. I'm not a 100%sure about the solo so for any tips e-mail me. I'm open to any corrections enjoy this kick ass song.


Pennywise albums
2003 From the Ashes
2001 Land of the Free?
2000 Live at the Key Club
1999 Straight Ahead
1997 Full Circle
1995 About Time
1993 Unknown Road
1992 Wild Card/A Word From the Wise
1991 Pennywise
Land of the Free? tabs
02Land of the Free? tabbass tab
03The World tabbass tab
04F**k Authority tabbass tab
05Something Wrong With Me tabbass tab
06Enemy tabbass tab
07My God tabbass tab
08Twist of Fate tabbass tab
09Who's on Your Side tabbass tab
10It's Up to You tabbass tab
11Set Me Free tabbass tab
12Divine Intervention tabbass tab
13WTO tabbass tab
14Anyone Listening tabbass tab

 

1