Search tabs:
Browse artists: 0-9 | A | B | C | D | E | F | G | H | I | J | K | L | M | N | O | P | Q | R | S | T | U | V | W | X | Y | Z
/ Phantom Planet / The Guest (2002) / California guitar tab

Title: California
Artist: Phantom Planet
Album: The Guest / O.C. Theme Song
Tabbed by: Anthony Morris (morrisa@student.swosu.edu)

Tuning: Standard (E A D G B E)

This is basically the same as all of the other ones, but I have added the small
guitar parts at the end. When I figure out the arpeggiated chords I will post it.

PIANO: Arr. for Guitar

INTRO PT.1
E|---7-9-7-9-----7-9-7-9-----7-9-7-9-11-7---||
B|-9-----------9-----------9----------------||
G|------------------------------------------||
D|------------------------------------------||
A|------------------------------------------||
E|------------------------------------------||

INTRO PT.2
E|------------------------------------------||
B|-9-7-7-----7-9---9-7-7-----7-9------------||
G|-------9-9-------------9-9----------------||
D|------------------------------------------||
A|------------------------------------------||
E|------------------------------------------||

VERSE 1:

C#m
We've been on the run
C#m
Driving in the sun
                E
Lookin' out for #1
             A      E
California here we come
             A               E
Right back where we started from

VERSE 2:

C#m
Hustlers grab your guns
C#m
Your shadow weighs a ton
                 E
Driving down the 101
             A      E
California here we come
             A      E
Right back where we started from

CHORUS:

        C#m  E  A
California
        C#m  B
Here we come

VERSE 3:

C#m
On the stereo
C#m
Listen as we go
                        E
Nothing’s gonna stop me now
           A       E
California here we come
           A                E
Right back where we started from

VERSE 4:

C#m
Pedal to the floor
C#m
Thinkin’ of the roar
                    E
Gotta get us to the show
           A       E
California here we come
           A                E
Right back where we started from

CHORUS:

       C#m  E  A
California
       C#m  B
Here we come

CHORUS #2:

       C#m  E  A
California  California
       C#m  B
Here we come    Oo-Ooh!

INTRO PT. 1

INTRO #2
E|-----------------------------------------||
B|-----------------------------------------||
G|-----------------------------------------||
D|-4/6-4-4-----4-4/6---4/6-4-4-----4-4/6---||
A|---------7-7-----------------7-7---------||
E|-----------------------------------------||

INTRO PT. 1

CHORUS #2 (Arpeggiate the notes here)
CHORUS #2 3x (I think)


Phantom Planet albums
2004 Phantom Planet
2002 The Guest
1998 Phantom Planet Is Missing
The Guest tabs
01California tabbass tab
02Always on My Mind tabbass tab
03Lonely Day tabbass tab
04One Ray of Sunlight tabbass tab
05Anthem tabbass tab
07Turn Smile Shift Repeat tabbass tab
08Hey Now Girl tabbass tab
10All Over Again tabbass tab
11Wishing Well tabbass tab
12Something Is Wrong tabbass tab
15California (live) tabbass tab

 

1