Search tabs:
Browse artists: 0-9 | A | B | C | D | E | F | G | H | I | J | K | L | M | N | O | P | Q | R | S | T | U | V | W | X | Y | Z
/ Phantom Planet / The Guest (2002) / Lonely Day guitar tab

Intro: This whole part is the chord A...but hammer on the third fret
       on the G string...(you'll hear it when u play it with the cd)

A
I could tell from the minute I woke up

it was gonna be a lonely lonely lonely lonely day

Rise and shine, rub the sleep out of my eyes

and try to tell myself I can't go back to bed.
 A               B7                         A
It's gonna be a lonely lonely lonely lonely day

Guitar 2 is played while other guitar is still strumming A

Guitar 2


e|---5-----7------10---10-----9---7------5----5--7-----10--10---9--7---|
B|---5-----7-------7----7-----7---7------5----5--7------7---7---7--7---|
G|---------------------------------------------------------------------|
D|---------------------------------------------------------------------|
A|---------------------------------------------------------------------|
E|---------------------------------------------------------------------|


verses are played just like intro

Even thought the sun is shining down on me

and I should feel about as happy as can be

I just got here and I already wanna leave

it's gonna be a lonely lonely lonely lonely day x3

and chorus is like this

e|-----------------------------------------------------------|
B|-----------------------------------------------------------|
G|-----------------------------------------------------------|
D|4---4---------7--7--------9-9------9-9-9-------------------|  x2
A|4---4---------7--7--------9-9------9-9-9-------------------|
E|2---2---------5--5--------7-7------7-7-7-------------------|


        D                 A
We all sing that same old song
          B7   B7
When you want it all
 B7   B7
to go away
B7                             A
it's shaping up to be a lonely day


Phantom Planet albums
2004 Phantom Planet
2002 The Guest
1998 Phantom Planet Is Missing
The Guest tabs
01California tabbass tab
02Always on My Mind tabbass tab
03Lonely Day tabbass tab
04One Ray of Sunlight tabbass tab
05Anthem tabbass tab
07Turn Smile Shift Repeat tabbass tab
08Hey Now Girl tabbass tab
10All Over Again tabbass tab
11Wishing Well tabbass tab
12Something Is Wrong tabbass tab
15California (live) tabbass tab

 

1