Search tabs:
Browse artists: 0-9 | A | B | C | D | E | F | G | H | I | J | K | L | M | N | O | P | Q | R | S | T | U | V | W | X | Y | Z
/ / / guitar tab

Phantom Planet
Big Brat

Verse
E------------------------------------------------------------------------------------
B------------------------------------------------------------------------------------
G------------------------------------------------------------------------------------
D-----------------------------------------------------------------------------------
A-5-5-5-5-----------------5-5-5-5-------------5-5-5-5-----------------5-5-5-5--------
D-----------3-55-3-55-3------------3-55-3-5-----------3-55-3-55-3------------3-55-3-5

Pre chorus
E------------------------------------------------------------------------------------
B------------------------------------------------------------------------------------
G------------------------------------------------------------------------------------
D-7-7-7-7-7-7-7-7-7-7-7-7-7-7-7-7-----------------------------------------
A-7-7-7-7-7-7-7-7-7-7-7-7-7-7-7-7------------------------------------------
D-7-7-7-7-7-7-7-7-7-7-7-7-7-7-7-7------------------------------------------

Chorus
E-----------------------------------------------------------------------------------
B------------------------------------------------------------------------------------
G-7-7-7-7--------------7-7-7-7----------7-7-7-7-------------7-7-7-7--------
D-7-7-7-7-3-55-3-55-3--7-7-7-7-3-55-3-5-7-7-7-7-3-55-3-55-3-7-7-7-7--3-55-3-5
A-5-5-5-5-3-55-3-55-3--5-5-5-5-3-55-3-5-5-5-5-5-3-55-3-55-3-5-5-5-5--3-55-3-5
D---------3-55-3-55-3------------3-55-3-5-------3-55-3-55-3----------3-55-3-5

Middle ( I only know the bass line, Im working on the guitars)
E------------------------------------------------------------------------------------
B------------------------------------------------------------------------------------
G------------------------------------------------------------------------------------
D----------------h-p-----------------h-p-----------------------------------
A----------- ----^-^-----------------^-^-----------------------------------
D-0-3-2-5-3-7-5-2-3-2-0-3-2-5-3-7-5-2-3-2

Normal song outro
E------------------------------------------------------------------------------------
B------------------------------------------------------------------------------------
G------------------------------------------------------------------------------------
D------------------------------------------------------------------------------------
A------------------------------------------------------------------------------------
D-5-5-5-5-3-3-3-3-0------------------------------------------------------------------

Outro on film clip
E------------------------------------------------------------------------------------
B------------------------------------------------------------------------------------
G------------------------------------------------------------------------------------
D---------------------9-9-9-6-6-6-6-6---------------------7-7-7-6-6-6-6-6------------
A-7-7-7-7-7-7-7-7---------------------4-4-4-4-4-4-4-4-------------------------------
D -----------------------------------------------------------------------------------

E------------------------------------------------------------------------------------
B------------------------------------------------------------------------------------
G------------------------------------------------------------------------------------
D---------------------6-6-6-4-4-4-4-4------------------------------------------------
A-2-2-2-2-2-2-2-2---------------------0-0-0-0-0-0-0-0-0-0-0-0-0-0-0-0----------------
D------------------------------------------------------------------------------------
The reverb is up high on the outro


albums
tabs

 

1