Search tabs:
Browse artists: 0-9 | A | B | C | D | E | F | G | H | I | J | K | L | M | N | O | P | Q | R | S | T | U | V | W | X | Y | Z
/ Phantom Planet / Phantom Planet Is Missing (1998) / Down in a Second guitar tab

Phantom Planet - Down In a second
Tabbed By: strokeskid82591
Email: sweetandsimple82591@hotmail.com

Tuning: Half Step Down (Eb Ab Db Gb Bb Eb)



yeah.

intro:

Eb|-------------------------------------||
Bb|-------------------------------------||
Gb|-------------------------------------||
Db|--------------------6----------------||
Ab|----7-9-------7-9-9------------------||
Eb|0-0-----7-0-0------------------------||
pm ...       ...

verse (lightly)
Eb|--------------------------------------------------------||
Bb|--------------------------------------------------------||
Gb|--------------------------------------------------------||
Db|9-9-9-9-9-9-8-8-8-8-8-8-6-6-6-6-6-6---------------------||
Ab|7-7-7-7-7-7-6-6-6-6-6-6-4-4-4-4-4-4-7-7-7-7-7-7---------||
Eb|------------------------------------5-5-5-5-5-5---------||

do that for a while then:
Eb|--------------------------------------------------------||
Bb|--------------------------------------------------------||
Gb|--------------------------------------------------------||
Db|---------2-2-2-2----------------------------------------||
Ab|2-2--4-4-0-0-0-0----------------------------------------||
Eb|0-0--2-2------------------------------------------------||

thats basically the whole song right there cuz you repeat stuff like a
billion times.  aiite peace.  have fun. get me a new guitar.

-sai


Phantom Planet albums
2004 Phantom Planet
2002 The Guest
1998 Phantom Planet Is Missing
Phantom Planet Is Missing tabs
02So I Fall Again tabbass tab
05The Local Black and Red tabbass tab
08Down in a Second tabbass tab
09Lisa (Does It Hurt You?) tabbass tab

 

1