Search tabs:
Browse artists: 0-9 | A | B | C | D | E | F | G | H | I | J | K | L | M | N | O | P | Q | R | S | T | U | V | W | X | Y | Z
/ / / guitar tab

Transcription by:  ?


LUCIFER SAM
Pink Floyd
(Barrett) 

e-|----|----------------------------------|
B-|----|----------------------------------|     
G-|----|----------------------------------|    
D-|----|----------------------------------|     
A-|----|-------4------3-----2-----0-------|     
E-|-0--|--0-2----2-2----2-2---2-2---------|

e-|----------------------------------------|
B-|----------------------------------------|
G-|----------------------------------------|
D-|-------2------1-----0-------------------|
A-|-0-1-2---2-2----2-2---2-2--4b-----------|
E-|----------------------------------------|



F#m               G
Lucifer Sam, siam cat.
B
Always sitting by your side
                  E
Always by your side.
C                                G    D
That cat's something I can't explain.

Jennifer Gentle, you're a witch.
You're the left side
He's the right side.
Oh, no!
That cat's something I can't explain.

Lucifer go to sea.
Be a hip cat, be a ship's cat.
Somewhere, anywhere.
That cat's something I can't explain.

At night prowling sifting sand.
Hiding around on the ground.
He'll be found when you're around.
That cat's something I can't explain.


--
Updated:  April 10/98


albums
tabs

 

1