Search tabs:
Browse artists: 0-9 | A | B | C | D | E | F | G | H | I | J | K | L | M | N | O | P | Q | R | S | T | U | V | W | X | Y | Z
/ The Police / Outlandos d'Amour (1978) / Truth Hits Everybody guitar tab

#-----------------------------PLEASE NOTE-------------------------------------#
#This OLGA file is the author's own work and represents their interpretation  #
#of the song. You may only use this file for private study, scholarship, or   #
#research. Remember to view this file in Courier, or some other monospaced    #
#font. See http://www.olga.net/faq/ for more information.                     #
#-----------------------------------------------------------------------------#

From: "Patrick Mauro"
Subject: p/police/truth_hits_everybody.tab
Date: Sat, 25 Sep 1999 11:27:53 -0700

Author/Artist: The Police
Title: Truth Hits Everybody
Album: Outlandos D'Amour (1978)
Transcribed by: Patrick Mauro
Email: pmauro@engr.uvic.ca
Date: August 19, 1999

As usual, listen to the song for the timing.  On this song
I like just a little bit of distortion.  Not lots, but enough
to fuzz it a bit.  This is it, should be at least close to
the song.  Have fun.

-----------------------------		Order
-----------------------------	
-6--6--6--6--6--6-------4----		1  x 3
-6--6--6--6--6--6--7----4----		1b x 1
-4--4--4--4--4--4--7----2----		2  x 4
-------------------5---------		3  x 3
 1                                      4  x 3

					1  x 3
-----------------------------		1b x 1
-----------------------------		2  x 4
-6--6--6--6--6--6-------7----		3  x 3
-6--6--6--6--6--6--7----7----		4  x 3
-4--4--4--4--4--4--7----5----		1  x 3
-------------------5---------		1b x 1
 1b	                                2  x 4
					3  x 3
-----------------------------		4  x 3
-----------------------------		1  x 3
-6--6--6--6--6--6------------		1b x 1
-6--6--6--6--6--6--7--7--7---		5  x 1
-4--4--4--4--4--4--7--7--7---		6  x 1
-------------------5--5--5---		4  x 1
 2 (muted)         	                7  x 2 *
 .  .					4  x 5
----------  -----------------		3  x 4
----------  -----------------		1  x 7
----------  ---6-------------		1b x 1
-7--7-----  ---6--7----------
-7--7-----  ---4--7----------	* 8 is played 3 times
-5--5-----  ------5----------     over top, 2nd guitar.
 3         4

----------------------------------------
----------------------------------------
-7-----9---------9-----7-------7-----9--
-7-----9---------9-----7-------7-----9--
-5-----7---------7-----5-------5-----7--
----------------------------------------
 5
				   .
----------------------------------------
----------------------------------------
------7----9----9---------7----7---7----
-4----7----9----9----4----7----7---7----
-4----5----7----7----4----5----5---5----
-2-------------------2------------------
 6

-----------------------  ------------------
-----------------------  ------------------
-6--6--6--6--6--6------  -9--8--6--8-------
-6--6--6--6--6--6--7---  -------------9----
-4--4--4--4--4--4--7---  ------------------
-------------------5---  ------------------
 7


~~~~~~~~~~~~~~~~~~~~~~~~
PATRICK MAURO
University of Victoria - Engineering
mailto://pmauro@engr.uvic.ca
http://www.engr.uvic.ca/~pmauro/

------=_NextPart_000_0010_01BF0749.01C29680
Content-Type: text/html;
	charset="iso-8859-1"
Content-Transfer-Encoding: quoted-printable








#----------------------------------PLEASE =
NOTE--------------------------------#
#This file is the author's own work and represents their interpretation =
of the#
#song. You may only use this file for private study, scholarship, or =
research.#
#------------------------------------------------------------------------=
-----#

Author/Artist: The Police
Title: Truth Hits Everybody
Album: Outlandos D'Amour (1978)
Transcribed by: Patrick Mauro
Email: pmauro@engr.uvic.ca
Date: August 19, 1999

As usual, listen to the song for the timing.  On this song
I like just a little bit of distortion.  Not lots, but enough
to fuzz it a bit.  This is it, should be at least close to
the song.  Have fun.

-----------------------------		Order
-----------------------------	     =3D=3D=3D=3D=3D=3D=3D=3D=3D=3D
-6--6--6--6--6--6-------4----		1  x 3
-6--6--6--6--6--6--7----4----		1b x 1
-4--4--4--4--4--4--7----2----		2  x 4
-------------------5---------		3  x 3
 1                                      4  x 3                           =
    =20
					1  x 3
-----------------------------		1b x 1
-----------------------------		2  x 4
-6--6--6--6--6--6-------7----		3  x 3
-6--6--6--6--6--6--7----7----		4  x 3
-4--4--4--4--4--4--7----5----		1  x 3
-------------------5---------		1b x 1
 1b	                                2  x 4=20
					3  x 3
-----------------------------		4  x 3
-----------------------------		1  x 3
-6--6--6--6--6--6------------		1b x 1
-6--6--6--6--6--6--7--7--7---		5  x 1
-4--4--4--4--4--4--7--7--7---		6  x 1
-------------------5--5--5---		4  x 1
 2 (muted)         	                7  x 2 * =20
 .  .					4  x 5
----------  -----------------		3  x 4
----------  -----------------		1  x 7
----------  ---6-------------		1b x 1
-7--7-----  ---6--7----------
-7--7-----  ---4--7----------	* 8 is played 3 times
-5--5-----  ------5----------     over top, 2nd guitar.
 3         4                      =20

----------------------------------------
----------------------------------------
-7-----9---------9-----7-------7-----9--
-7-----9---------9-----7-------7-----9--
-5-----7---------7-----5-------5-----7--
----------------------------------------
 5    =20
				   .
----------------------------------------
----------------------------------------
------7----9----9---------7----7---7----
-4----7----9----9----4----7----7---7----
-4----5----7----7----4----5----5---5----
-2-------------------2------------------
 6                                    =20

-----------------------  ------------------
-----------------------  ------------------
-6--6--6--6--6--6------  -9--8--6--8-------
-6--6--6--6--6--6--7---  -------------9----
-4--4--4--4--4--4--7---  ------------------
-------------------5---  ------------------
 7                  =20

Lyrics
=3D=3D=3D=3D=3D=3D=3D=3D
Words and music by Sting

Sleep lay behind me like a broken ocean
Strange waking dreams before my eyes unfold
You lay there sleeping like an open doorway
I stepped outside myself and felt so cold

Take a look at my new toy
It'll blow your head in two, oh boy

Truth hits everybody
Truth hits everyone
Oh, oh, oh
Truth hits everybody
Truth hits everyone
Truth hits everybody
Truth hits everyone

I thought about it and my dream was broken
I clutch at images like dying breath
And I don't want to make a fuss about it
The only certain thing in [life is death]    [
~~~~~~~~~~~~~~~~~~~~~~~~PATRICK=20
MAUROUniversity of Victoria - Engineeringmailto://pmauro@engr.uvic.cahttp://www.engr.uvic.ca/~pmauro=
/

------=_NextPart_000_0010_01BF0749.01C29680--


The Police albums
1983 Synchronicity
1981 Ghost in the Machine
1980 Zenyatta Mondatta
1979 Reggatta de Blanc
1978 Outlandos d'Amour
Outlandos d'Amour tabs
01Next to You tabbass tab
02So Lonely tabbass tab
03Roxanne tabbass tab
06Can't Stand Losing You tabbass tab
07Truth Hits Everybody tabbass tab
09Be My Girl - Sally tabbass tab

 

1