Search tabs:
Browse artists: 0-9 | A | B | C | D | E | F | G | H | I | J | K | L | M | N | O | P | Q | R | S | T | U | V | W | X | Y | Z
/ Pro-Pain / Contents Under Pressure (1996) / State of Mind guitar tab

State Of Mind by Pro-Pain
tabbed by FoulTasteOfFreedom,icq#175268071
Rate this please

1st riff
E|----------------------------------------------------------|
D|----------------------------------------------------------|
G|----------------------------------------------------------|
D| 2-2----2-2----2-2----2-2-2---5---------------------------|
A| 2-2----2-2----2-2----2-2-2---3-3-------------------------|
E| 0-0----0-0----0-0----0-0-0-----1-------------------------|


2nd Riff
E|----------------------------------------------------------|
D|----------------------------------------------------------|
G|----------------------------------------------------------|
D| 2-2----2-2----2-2----2-2-2---5-8-------------------------|
A| 2-2----2-2----2-2----2-2-2---3-6-------------------------|
E| 0-0----0-0----0-0----0-0-0-------------------------------|



3rd riff
E|-------------------------------------------------------------------------------|
D|-------------------------------------------------------------------------------|
G|-------------------------------------------------------------------------------|
D|--7------2--2----2--2--2--2-----7-----9-9---9-9-9-9----------------------------|
A|--5-7----2--2----2--2--2--2-----5-7---7-7---7-7-7-7----------------------------|
E|----5----0--0----0--0--0--0-------5--------------------------------------------|



Last Riff
E|-----------------------------------------------------------------------|
D|-----------------------------------------------------------------------|
G|-----------------------------------------------------------------------|
D|--9-------10--------7-------10--9-------10--------7-------10---9-------|
A|--7--------8--------5--------8--7--------8--------5--------8---7-------|
E|-----000------00-------00----------00--------00-----00-----------------|
       ^^^      ^^       ^^          ^^        ^^     ^^
       PM       PM       PM          PM        PM     PM


Pro-Pain albums
2002 Shreds of Dignity
1998 Pro-pain
1996 Contents Under Pressure
1994 The Truth Hurts
1992 Foul Taste of Freedom
Contents Under Pressure tabs
01Crush tabbass tab
03State of Mind tabbass tab

 

1