Search tabs:
Browse artists: 0-9 | A | B | C | D | E | F | G | H | I | J | K | L | M | N | O | P | Q | R | S | T | U | V | W | X | Y | Z
/ Pro-Pain / Foul Taste of Freedom (1992) / Foul Taste of Freedom guitar tab

Pro Pain - Foul Taste of Freedom - From the Album Foul Taste of Freedom

Pro-Pain is an awesome band, people say they're metal-core but I
don't really think so I think they're more thrash and this song
kinda shows it(though it AIN'T that fast)
If you want a faster Pro-Pain song try
F.O.A.D. or Lesson Learned

..  - palm mute          /  - slide up to

This is just my representation, and my first tab. I don't know the
solo but I know ALL the other riffs
I also might be wrong with the time signature but if you
 heard the song before, you know what to do
It's pretty easy


Song is in Standard E tuning






Riff A - This riff is the intro and the chours riff

----------------------------------------------------------------
----------------------------------------------------------------
----------------------------------------------------------------
----------------------------------------------------------------
------------------------------------5-----------3---------------
0---0---0--/7---0---0--/6---0---0---3---0---0---1---------------
                                        .   .


Riff B

----------------------------------------------------------------
----------------------------------------------------------------
----------------------------------------------------------------
----------------------------------------------------------------
2---------------------------------------------------------------
0-----------------------------------6---5---4---6---5---3---1---
                                    .   .   .   .   .   .   .

Riff C

----------------------------------------------------------------
----------------------------------------------------------------
----------------------------------------------------------------
----------------------------------------------------------------
2-----------5-------------------8---8---7-------8---7---5-------
0-----------3-------------------6---6---5-------6---5---3-------


Riff D

----------------------------------------------------------------
----------------------------------------------------------------
----------------------------------------------------------------
----------------------------------------------------------------
2-----------5-------------------8---8---7-------8---7---5-------
0---0---0---3---0---0---0-------6---6---5-------6---5---3-------
    .   .       .   .   .


Riff D2(As you see I ***ed up and forgot)

----------------------------------------------------------------
----------------------------------------------------------------
----------------------------------------------------------------
----------------------------------------------------------------
2-------------------------------8---8---7-------8---7---5-------
0-------------------------------6---6---5-------6---5---3-------
.


Riff E

----------------------------------------------------------------
----------------------------------------------------------------
----------------------------------------------------------------
----------------------------------------------------------------
----------------------------------------------------3-----------
0---0---0--/7---0---0--/6-----------------------0---1-----------


Riff F - rythem riff under solo

----------------------------------------------------------------
----------------------------------------------------------------
----------------------------------------------------------------
--------------------------------------------5-------------------
7---------5---7---5---7---------5---7---5---3------5------------
5---------3---5---3---5---------3---5---3----------3------------


Riff G

----------------------------------------------------------------
----------------------------------------------------------------
----------------------------------------------------------------
----------------------------------------------------------------
----------------------------------------------------------------
2---2---2---2---2---2---2---2---2---8---8---7-------8---7---5---
0---0---0---0---0---0---0---0---0---6---6---5-------6---5---3---
.   .   .   .   .   .   .   .   .   .   .   .   .   .   .   .



Well there are the riffs, here are the orders

Riff A(x8), Riff B, Riff C(x4), Riff D(x3), Riff D2, Riff A(x3), Riff E,
Riff B, Riff C(x4), Riff D(x3), Riff D2, Riff A(x3), Riff E, Riff F
(x 8, sustain an E power chord for eight measures before going into Riff F),
Riff G, Riff D(x3), Riff D2, Riff A(x a million as it fades out)


There you go, I hope I helped, someone do me a
favor and tab the solo Thanks

See you
Dave


Pro-Pain albums
2002 Shreds of Dignity
1998 Pro-pain
1996 Contents Under Pressure
1994 The Truth Hurts
1992 Foul Taste of Freedom
Foul Taste of Freedom tabs
01Foul Taste of Freedom tabbass tab

 

1