Search tabs:
Browse artists: 0-9 | A | B | C | D | E | F | G | H | I | J | K | L | M | N | O | P | Q | R | S | T | U | V | W | X | Y | Z
/ Pro-Pain / The Truth Hurts (1994) / Put The Lights Out guitar tab

pro-pain - put the lights out
Tabbed By: punkandoi!
Email: dieuwert_mul@hotmail.com

Tuning: Standard (E A D G B E)



/ or \ = slide
v = vibrator
b = bend
h = hammer on
p = picking of
(.) = play these notes very softly (instead of the dot belongs a
                                      number)
=.= means you have to pick this note with your plectrum as normal,
    but you don't put your finger to the fret, but you only put
    the finger on your string, so you don't hear a clear tone. the
    tone doesn't hold on, the guitar stops making sound just after
    you picked the note.


riff 1
E|----------------------------------------------------------------||
B|----------------------------------------------------------------||
G|----------------------------------------------------------------||
D|----------------------------------------------------------------||
A|-----3---2------------------------------------------------------||
E|-2-----------2--=5=-5-5-=3=-3-3---------------------------------||


riff 2a
E|----------------------------------------------------------------||
B|----------------------------------------------------------------||
G|----------------------------------------------------------------||
D|----------------------------------------------------------------||
A|----------------------------------------------------------------||
E|-0h2-2-2-2-0h2-2-2-2-0h2-2-2-2-5--2-5-1-2p1---------------------||


Riff 2b
E|----------------------------------------------------------------||
B|----------------------------------------------------------------||
G|----------------------------------------------------------------||
D|----------------------------------------------------------------||
A|----------------------------------------------------------------||
E|-0h2-2-2-2-0h2-2-2-2-0h2-2-2-2-5--2-5-1-2p1---------------------||


you can figger out yourself when they play wich riff. the solo you can tab yourself if you want to :P.


Pro-Pain albums
2002 Shreds of Dignity
1998 Pro-pain
1996 Contents Under Pressure
1994 The Truth Hurts
1992 Foul Taste of Freedom
The Truth Hurts tabs
04Put The Lights Out tabbass tab
08Down In The Dumps tabbass tab

 

1